The Beatles

The Beatles
The End Solos (Guitar tab)

Beatles: The End
Guitar solos

#1 (Paul)
* . . . * . . . * . . . * . . . *
|-------------------------------------------------------------------------|
|-----------------10---------------10---8---___-----___-------------------|
|-----9-9-9---9---(0)----------9_____-------8\5-----5h7------5b------___--|
|-----------------------------------------------7--------------------7p5--|
|-------------------------------------------------------------------------|
|-------------------------------------------------------------------------|

#2 (George)
* . . . * . . . * . . .
|--------------------------------------------------________------|
|---------____-10----10-13b15v_________________r---10p13p10------|
|---------9/12----12----------------------------------------12---|
|----------------------------------------------------------------|
|----------------------------------------------------------------|
|----------------------------------------------------------------|

* . . . * . . .
|---------------------------------------|
|-10------10----------------------------|
|----12------9--------------------------|
|------------------12------10b----------|
|-------------------------------12------|
|---------------------------------------|

#3 (John)
* . . . * . . . * . . .
|----------------------------------------------------------------|
|-12-12---12-12-----12----12-12-------12----12-12-12-12_\5---5-\-|
|-12-12---12-12-----12-14-12-12-14----12-14-12-12-12-12_\5---5-\-|
|-12-12---12-12-----12-14-12-12-14-12----14----12-12-12_\5---5-\-|
|-----------------x----------------------------------------------|
|----------------------------------------------------------------|

#4 (Paul)
* . . . * . . . * . . . * . . .
|-----8---8---8---8--------------------------------5-------5---8/10--|
|---------------------5---------------5---___--5-------8-------------|
|-------------------------5-------5-------7/8------------------------|
|-----------------------------5--------------------------------------|
|--------------------------------------------------------------------|
|--------------------------------------------------------------------|


#5 (George)
* . . . * . . . * . . . * . . .
|--------------------------------------------------------------------|
|-----------5---5-----5-5---5-------5---5-----5---7b8r7---_____-8b10-|
|-----------5---5-----5-5---5-------5---5-----5---7b8r7---5h7p5------|
|---------7-------7-----------7---7-------7--------------------------|
|--------------------------------------------------------------------|
|--------------------------------------------------------------------|

#6 (John)
* . . . * . . . * . . . * . . . * . . .
|---------------------------------------------------------------------------------|
|---------------------------------------------------------------------------------|
|---------------------------------------------------------------------------------|
|-------------------------0-----------0-------------------0-------2p0-0-------0---|
|-------------0---2b----------2b----------------------3-------3-----------3-------|
|-----0---3-----------------------------------------------------------------------|


#7 (Paul)
* . . . * . . . * . . . * . . .
|-----------------------------------------------------------------|
|-----------------------------------------------------------------|
|-------------5-5---5-5---------------5-5---5-5-------------------|
|-5-5---5-5---------------5-5---5-5---------------5\2-2p0---------|
|---------------------------------------------------------3p0-3p0-|
|-----------------------------------------------------------------|

#8 (George)
* . . . * . . . * . . .
|------------------------15b17v____________r15---________---|
|-------------------13---------------------------13h15p13---|
|-9__/12---12__/14------------------------------------------|
|-----------------------------------------------------------|
|-----------------------------------------------------------|
|-----------------------------------------------------------|

#9 (John)
* . . . * . . . * . . .
|-----------------(7---7---7)--------------------------------------|
|------------------7p5-7p5-7p5-7p5-7p5-7p5-7p5-7p5-7p5-7p5-7p5-7p5-|
|---------5--7-----7p5-7p5-7p5-7p5-7p5-7p5-7p5-7p5-7p5-7p5-7p5-7p5-|
|-----7---5--7-----------------------------------------------------|
|-----7------------------------------------------------------------|
|------------------------------------------------------------------|

Tr: PD. 2003

OptimusPrime

Submitted by OptimusPrime at Wed 09 Apr, 2003 1:19 am

Author: ?
Composer: ?
Publisher: ?
Language: English

Reactions

CommonCrawl [Bot]

Follow Muzikum