The Beatles

The Beatles
Let It Be Solo Ver 3 (Guitar tab)

The Beatles- Let it Be Solo



E---------------------------------------------------------------------------------
B---------------------------------------------------------------------------------
G---------------------------------------------------------------------------------
D-----------------------------------------------------5h7-5---------------------
A-----------3-3---5/7/5---3h5-5---------3--5/7------------7/5--3----------
E-----3h5----------------------------3h5---------------------------------------

E---------------------------------------------------------------------------------
B-------------------------------------------8h10h8-----------------------------
G-----------------------------5------7/9---------------9/7h5---7--5----------
D----------5-5-----5----7----------------------------------------------7--5----
A---5/7---------7----------------------------------------------------------------
E---------------------------------------------------------------------------------

E------------I--------------------------------------------------------------------
B------------I------------------------------------------------------------------G------------I---------------------------------7/9--7--5h7---------------/9----
D------------I-----------------------5/7/5--------------------5--5h7-----------
A--7--5--3-I--------------3/7/3------------------------------------------------
E------------I------3h5----------------------------------------------------------

E--------------------------------------------8------------------12--10--8------
B---8h10h8------------------------------------10h8---------------------------
G----------------9/7--5-------------5/9-----------------9----------------------
D-----------------------------5h7-----------------------------------------------
A---------------------------------------------------------------------------------
E---------------------------------------------------------------------------------

E---------------------------------------------------------------------------------
B----10--8----------10--8------------------------------------------------------
G-------------9---------------9/7----5h7-5------------------------------------
D---------------------------------------------------------------------------------
A---------------------------------------------------------------------------------
E-----------------------------------------------------------------------------

juliesguitar

Submitted by juliesguitar at Wed 26 Feb, 2003 9:18 am

Author: ?
Composer: ?
Publisher: ?

Reactions

2 posts

CommonCrawl [Bot]
juliesguitar
Fri 28 Feb, 2003 1:50 pm
I`m sorry , I had a trouble, but this is the right tab and my first one.
Julie

The Beatles-Let it be Solo


E---------------------------------------------------------------------------------
B---------------------------------------------------------------------------------
G---------------------------------------------------------------------------------
D-----------------------------------------------------5h7-5---------------------
A-----------3-3---5/7/5---3h5-5---------3--5/7------------7/5--3----------
E-----3h5----------------------------3h5---------------------------------------

E---------------------------------------------------------------------------------
B-------------------------------------------8h10h8-----------------------------
G-----------------------------5------7/9---------------9/7h5---7--5----------
D----------5-5-----5----7----------------------------------------------7--5----
A---5/7---------7----------------------------------------------------------------
E---------------------------------------------------------------------------------

E------------I--------------------------------------------------------------------
B------------I--------------------------------------------------------------------
G------------I---------------------------------7/9--7--5h7---------------/9---
D------------I-----------------------5/7/5--------------------5--5h7-----------
A--7--5--3-I--------------3/7/3------------------------------------------------
E------------I------3h5----------------------------------------------------------

E--------------------------------------------8------------------12--10--8------
B---8h10h8------------------------------------10h8---------------------------
G----------------9/7--5-------------5/9-----------------9----------------------
D-----------------------------5h7------------------------------------------------
A----------------------------------------------------------------------------------
E----------------------------------------------------------------------------------

E---------------------------------------------------------------------------------
B----10--8----------10--8------------------------------------------------------
G-------------9---------------9/7----5h7-5------------------------------------
D---------------------------------------------------------------------------------
A---------------------------------------------------------------------------------
E------------------------------------------------------------------------
juliesguitar
Fri 28 Feb, 2003 1:46 pm
I`m sorry, I had a problem, but this is the right tab, and my first one.
Julia

The Beatles- Let it Be Solo



E---------------------------------------------------------------------------------
B---------------------------------------------------------------------------------
G---------------------------------------------------------------------------------
D-----------------------------------------------------5h7-5---------------------
A-----------3-3---5/7/5---3h5-5---------3--5/7------------7/5--3----------
E-----3h5----------------------------3h5---------------------------------------

E---------------------------------------------------------------------------------
B-------------------------------------------8h10h8-----------------------------
G-----------------------------5------7/9---------------9/7h5---7--5----------
D----------5-5-----5----7----------------------------------------------7--5----
A---5/7---------7----------------------------------------------------------------
E---------------------------------------------------------------------------------

E------------I--------------------------------------------------------------------
B------------I--------------------------------------------------------------------
G------------I---------------------------------7/9--7--5h7---------------/9---
D------------I-----------------------5/7/5--------------------5--5h7-----------
A--7--5--3-I--------------3/7/3------------------------------------------------
E------------I------3h5----------------------------------------------------------

E--------------------------------------------8------------------12--10--8------
B---8h10h8------------------------------------10h8---------------------------
G----------------9/7--5-------------5/9-----------------9----------------------
D-----------------------------5h7------------------------------------------------
A----------------------------------------------------------------------------------
E----------------------------------------------------------------------------------

E---------------------------------------------------------------------------------
B----10--8----------10--8------------------------------------------------------
G-------------9---------------9/7----5h7-5------------------------------------
D---------------------------------------------------------------------------------
A---------------------------------------------------------------------------------
E------------------------------------------------------------------------
t.
2 posts • Page 1 of 1

Follow Muzikum