The Beatles

The Beatles
Please Please Me Ver 2 (Guitar tab)

please please me

chords

E A G B7 F#m C#m Amaj9 B C
0 0 3 # 2 4 0 2 0
0 2 3 0 2 5 0 4 1
1 2 4 2 2 6 1 4 0
2 2 5 1 4 6 2 4 2
2 0 5 2 4 4 0 2 3
0 # 3 # 2 # # # #

intro
E
-------------------------------------
-------------------------------------
-----9-8-6----6-------9-8-6----6-----
-9---------9----9-6---------9----9-6-
---7---------------------------------
-------------------------------------

verses
E A E G A B7
(1,3)last night i said these words to my girl
(2) you dont me to show the way love

E A E
i know you never even try girl -------------
why do i always have to say girl -----------0-
-------------
-----2-2-----
---------2---
-0-0---------

chorus
A F#m C#m
come on(comeon) come on(comeon) come on(comeon)

A E
come on(comeon) please please me wo

A B7 E Amaj9 B
yeah like i please you

bridge
A
i dont wont to sound complaining
B E A E
but you know its always raining in my heart (in my heart)
A B7 E
i do all the pleasing with you its so hard to reason with you wo
A B7 E Amaj7 B
yeah why do you make me blue -----------------------
-----------------------
---9-8-6-----6---------
---------9-------9---6-
-----------------------
-----------------------

coda
E A B7 E A B7 E
you wo yeah like i please you wo yeah like i please you

G C B E

OptimusPrime

Submitted by OptimusPrime at Sun 01 Dec, 2002 8:47 am

Author: ?
Composer: ?
Publisher: ?
Language: English

Reactions

CommonCrawl [Bot]

Follow Muzikum