The Beatles

The Beatles
Hard Days Night Ver 4 (Guitar chord)

A Hard Day's Night -- The Beatles
From the A Hard Day's Night album
Transcibed by Andy Ryan
Standard Tuning

Chords Used
Gsus2 G C F D Bm Em Am D7
----3----3----0----1----2----2----0----0----2----
----3----3----1----1----3----3----0----1----1----
----5----4----0----2----2----4----0----2----2----
----3----5----2----3----0----4----2----2----0----
----5----5----3----3---------2----2----0---------
-----3----3---------4--------------0--------------

Intro

Gsus2 (Let Ring)

Verse 1
G C G F G
It's been a hard day's night, and I've been working like a dog
C G F G
It's been a hard day's night, and I've been sleeping like a log
C D
But when I get home to you, I find the things that you do
G C G
You know I feel alright

Verse 2
Same Chord sequence, different words (that I can't quite remember
at the moment!)

Bridge
Bm Em Bm
When I'm home everything seems to be right
G Em Am D7 (or D)
When I'm home, feeling you holding me tight, tight

Verse 3
Same as first

Solo
|------------------------------|------1-----1-----1-----1----------|
|--------------------1-------3-|--1-3---1-3---1-3---1-3---3--------|
|*---0-------0---3-------3-----|----------------------------3---0-*|
|*-----------------------------|----------------------------------*|
|------------------------------|-----------------------------------|
|------------------------------|-----------------------------------|

C D
But when I get home to you, I find the things that you do
G C G
You know I feel alright

Bridge

Verse 4
Same as first

G C G
You know I feel alright
C
You know I feel alr

played slowly Fade
|--1-------3-------1--------3------1-------3-----|
|--1-1---1---1---1---1---1---1---1---1---1---1---|
|--2---2-------2-------2-------2-------2-------2-|
|------------------------------------------------| etc.
|------------------------------------------------|
|------------------------------------------------|
ight

Listen to the track to get the right timing, but most importantly, have fun!
Andy

OptimusPrime

Submitted by OptimusPrime at Sun 01 Dec, 2002 8:47 am

Author: ?
Composer: ?
Publisher: ?
Language: English

Reactions

CommonCrawl [Bot]

Follow Muzikum