The Beatles

The Beatles
Hard Days Night Ver 2 (Guitar tab)

A HARD DAY'S NIGHT

Words & Music by John Lennon & Paul McCartney

Album: A Hard Day's Night (1964)



INTRO:


Dsus4
|-3-------|
|-1-------|
|-2-------|
|-0-------|
|-x-------|
|-x-------|


VERSE (Play 2x):


G Cadd9 G F G
|-3-------3-|--------|-1-------|--------||
|-3-------3-|--------|-1-------|--------||
|-0-------0-|--------|-2-------|--------||
|-0-------2-|--------|-3-------|--------||
|-2-------3-|--------|-3-------|--------||
|-3-------x-|--------|-1-------|--------||


C D G Cadd9 G Verse
|-0------|-2------|------------|--------||------|
|-1------|-3------|------------|--------||------|
|-0------|-2------|------------|--------||------|
|-2------|-0------|------------|--------||------|
|-3------|-x------|------------|--------||------|
|-x------|-x------|------------|--------||------|


BRIDGE:

Bm Em Bm Bm G Em C D Verse
|-2------|-0-------|--------|--------|--------|-------|-------|------||-------|
|-3------|-0-------|--------|--------|--------|-------|-------|------||-------|
|-4------|-0-------|--------|--------|--------|-------|-------|------||-------|
|-4------|-2-------|--------|--------|--------|-------|-------|------||-------|
|-2------|-2-------|--------|--------|--------|-------|-------|------||-------|
|-x------|-0-------|--------|--------|--------|-------|-------|------||-------|


SOLO (Play 2x):

. h w w Verse
|-----------------|---------|---------------------------------|---------||-----|
|-----------------|---------|---------------------------------|---------||-----|
|-----------------|---------|---------------------------------|---------||-----|
|-----------------|---------|-----3-----3-----3-----3---------|---------||-----|
|-3---3-1-3-1-3s5-|-5-------|-3h5---3h5---3h5---3h5---5s3p1---|---------||-----|
|-----------------|---------|-------------------------------3-|-3-------||-----|


OUTRO (Play 4x):


|-3--------1-------|
|---1---1----1---1-|
|-----2--------2---|
|------------------|
|------------------|
|------------------|




Submitted by: Michael Hatch
Email: watching_wheels@hotmail.com
Date: 7/01/01

OptimusPrime

Submitted by OptimusPrime at Sun 01 Dec, 2002 8:47 am

Author: ?
Composer: ?
Publisher: ?
Language: English

Reactions

CommonCrawl [Bot]

Follow Muzikum