The Beatles

The Beatles
Norwegian Wood Vers. 2 (Guitar Tab)

THE BEATLES - NORWEGIAN WOOD



Intro
d d u d d u d d d u d

e-----2--2--2---------------------2--2--2---------------2--2--2
b--3--3--3--3---------------------3--3--3------------3--3--3--3
g--2--2--2--2---2h4---2---0---2---2--2--2-----0------2--2--2--2
d--0--------------------------4------------2------4--0---------
a--------------------------------------------------------------
E--------------------------------------------------------------

d d d u d u d

e-----2----2------2--2--2--2--2-------------
b-----3----3------3--3--3--3--3-------------
g-----2----0------2--2--2--2--2-----0-------
d---------------------------------2----4---0
a---3----2----------------------------------
E-------------------------------------------


u=up stroke
d=down stroke

OptimusPrime

Submitted by OptimusPrime at Sun 01 Dec, 2002 8:47 am

Frank Potters

Last updated by Frank Potters at Tue 15 Aug, 2017 1:32 am

Author: ?
Composer: ?
Publisher: ?
Language: English

Reactions

CommonCrawl [Bot]

Follow Muzikum