The Beatles

The Beatles
Twist And Shout Ver 2 (Guitar tab)

#

Song: Twist aand Shout
Band: The Beatles
Tabbed by: Leo b.


This is a very easy song to play and it's a lot of fun.


Main riff through out the entire song

D G A
E-----------------------------------------------------------
B-----------------------------------------------------------
G---------------------------7-------------------------------
D---------------------------7------5--5----7----------------
A------0-----2-----4----5---5------5--5----7----------------
E----------------------------------3--3----5---5-5-5-5------


Little guitar riff
ETC
E--------------------------------------------------------
B------------------------0-----3-----2-----------0-------
G---------2--------2-----------4-----2-----2--------2----
D---------2--------2-----------------------2--------2----
A--------------------------------------------------------
E--------------------------------------------------------

and last but not least play an a chord over the "aaaaaaaaaaaaaahh" part.

Hope you enjoy, the beatles rule even though they didn't write this one!

Peace

leo

OptimusPrime

Submitted by OptimusPrime at Sun 01 Dec, 2002 8:47 am

Author: ?
Composer: ?
Publisher: ?
Language: English

Reactions

CommonCrawl [Bot]

Follow Muzikum