The Beatles

The Beatles
Ive Just Seen A Face Ver 3 (Guitar tab)

ARTIST: THE BEATLES
ALBUM: HELP!/RUBBER SOUL
SONG TITLE: I'VE JUST SEEN A FACE
WRITTEN BY: JOHN LENNON & PAUL MCCARTNEY
TABBED BY "SOT" 8/03/02

Intro, Two guitar part. First guitar plays notes on the g and e stings as
triplets (count,| 1,2,3,| 1,2,3,| ). Second guitar plays the bass line on
the D, A and E strings. Don't worry about these if you're playing solo.

e------|--2-2-2|--5-5-5|--9-9-9|---14--14--14|---10--10--10---
b------|-------|-------|-------|-------------|----------------
g------|-2-2-2-|/6-6-6-|/9-9-9-|/14--14--14--|/11--11--11-----
D------|-------|-------|-------|-4-----------|0---------------
A------|-------|-------|-------|-------------|----------------
E--5-4-|-2-----|-------|-------|-------------|----------------

e----12--12--12|---14--14--14|---14--14---|---12--12--12|---10--10--(10)-
b--------------|-------------|------------|-------------|----------------
g--12--12--12--|/14--14--14--|-14--14-----|/13--13--13--|-11--11--11-----
D--------------|-------------|-0----------|-------------|----------------
A--------------|-------------|-------4----|-2-----------|-0--------------
E--------------|-------------|------------|-------------|--------4-------

A
I'VE JUST SEEN A FACE I CAN'T FORGET THE TIME OR PLACE WHERE WE JUST

F#m
MET. SHE'S JUST THE GIRL FOR ME AND I WANT ALL THE WORLD TO SEE WE'VE MET.

D E A
HMMM HMMM HMMM MM

A
HAD IT BEEN ANOTHER DAY I MIGHT HAVE LOOKED THE OTHER WAY. AND

F#m
I'D HAVE NEVER BEEN AWARE BUT AS IT IS I'LL DREAM OF HER TONIGHT

D E A
LA DA DAI LA DA DAI

E D A D A
FALLING YES I AM FALLING AND SHE KEEPS CALLING ME BACK AGAIN

A
I HAVE NEVER KNOWN THE LIKE OF THIS I'VE BEEN ALONE AND I HAVE

F#m
MISSED THINGS AND KEPT OUT OF SIGHT BUT OTHER GIRLS WERE NEVER QUITE LIKE THIS

D E A
HUH DAI DA DA DA DA

E D A D A
FALLING YES I AM FALLING AND SHE KEEPS CALLING ME BACK AGAIN

12 string guitar solo (Chords shown above)

A F#m
e------------|-----------|---------|---------|-----------|---------|
b------------|-----------|---------|---------|-----------|---------|
g------------|-----------|---------|---------|-----------|---------|
D------------|-----------|---------|---------|-----------|---------|
A--0-0-0-2-2-|-(2)-0-0-4-|-4-0-0-5-|-5-4-4-2-|-0-0-0-2-2-|-0-0-0-4-|
E------------|-----------|---------|---------|-----------|---------|

D E A
e----------|---------|--------|---------|--------|------5--||
b----------|---------|--------|---------|--------|------2--||
g----------|---------|--------|---------|--------|---------||
D----------|---------|--------|---------|--------|------2--||
A--4-0-0-5-|-5-4-4-2-|-0------|-2--0----|--------|---------||
E----------|---------|--------|---------|-4--2-4-|-0-------||

E D A D A
FALLING YES I AM FALLING AND SHE KEEPS CALLING ME BACK AGAIN

A
I'VE JUST SEEN A FACE I CAN'T FORGET THE TIME OR PLACE WHERE WE JUST

F#m
MET. SHE'S JUST THE GIRL FOR ME AND I WANT ALL THE WORLD TO SEE WE'VE MET.

D E A
HMMM HMMM HMMM LA DA DAI



E D A D A
FALLING YES I AM FALLING AND SHE KEEPS CALLING ME BACK AGAIN

E D A D A
FALLING YES I AM FALLING AND SHE KEEPS CALLING ME BACK AGAIN


E D A
FALLING YES I AM FALLING AND SHE KEEPS CALLING

D E A
ME BACK AGAIN.
e|-----------|----------|----------|-------5--||
b|-----------|----------|----------|-------2--||
g|-----------|----------|----------|----------||
D|---0-------|--0-------|----------|-------2--||
A|-------0---|------4---|--2--0----|--0-------||

OptimusPrime

Submitted by OptimusPrime at Sun 01 Dec, 2002 8:47 am

Author: ?
Composer: ?
Publisher: ?
Language: English

Reactions

CommonCrawl [Bot]

Follow Muzikum