The Beatles

The Beatles
I Will Ver 2 (Guitar tab)

The Beatles - I Will
standard tuning
if this tab looks wierd then widen it and it should fix up

tabbed by Jim (potatoboy2000@hotmail.com)

> = tied notes
h = hammer on
p = pull off
()= optional note
{C}= go to chorus
{}= sustained note

this is 100% accurate

Chords
F (133211) Gm7(353333) Am(x02210) Bb (x13331)
Dm(xx0231) C7 (x32310) F7(131211) Fdim(xx3434)


2 Guitars

Guitar I (12 String)

D.S

|-------------|-----(1)----------|------------------|---------------|
|-------------|------------------|------------------|---------------|
|-------------|-----(2)----------|------------------|---------------|
|-------------|--(3)-------------|------------------|---------------|
|-------------|------------------|------------------|---------------|
|-------------|------------------|------------------|---------------|

Guitar 2
rhythm is 8 strums per bar (listen to CD for chord changes and timing)

F Dm Gm7 C7 F Dm
1. Who knows ______how long I've loved you__You know___I love you still
2. I e____ver saw___you____ I did___n't catch your name
3. at last____I find you______Your song will fill the air

Guitar 1 (12 String)
|-------------|------------------|-------------------|---------------|
|-------------|------------------|-------------------|---------------|
|-------------|------------------|-------3-(2)-------|---------------|
|-------------|------------------|-------3-(3)-------|---------------|
|-------------|------------------|-------1-(3)-------|---------------|
|-------------|------------------|-------------------|---------------|


Guitar 2
D.S.X(Dm Bb F)

Am F7 Bb C7 F Bb C7
1. Will I wait a lonely life____time__If you want me too I will___
2. But it never____really mattered_____I will always feel the same_{C}
3. Sing it loud so I can hear ___you___Make it easy to be near_(coda)

Guitar 1 (12 String) [riff after the first verse]
|----1>>1------1------------|----1>>1------1-----------|
|---------3------3>>3-1-----|---------3------3>3-------|
|-----------2-----------1h2-|-----------3-------3-1h2--|
|---------------------------|--------------------------|
|---------------------------|--------------------------|
|---------------------------|--------------------------|

Guitar 2
F Dm Gm7 C7
1. For if (go to verse 2)


Chorus

Guitar 1 (12 String)
|----1>>1-------------------|-------------|--------0--1--|--------------|
|---------3----4--3>3-1-----|-------------|--------------|-------{1}----|
|-----------2-----------1h2-|-{3}---------|--{3)---------|-{3}----------|
|---------------------------|------{2}----|--------------|--------------|
|---------------------------|-------------|--------------|--------------|
|---------------------------|-------------|--------------|--------------|

Guitar 2 (chord changes here not accurately in correspondence with lyrics)
F F7 Bb Am Dm Gm7 C7
Love u forever and forever Love u with all my heart


Guitar 1 (12 String)
|----1>>1-------------------|-------------|--------0--1--|------3>>>>>8-|
|---------3----4--3>3-1-----|-------------|--------------|--------------|
|-----------2-----------1h2-|-{3}---------|--{3)---------|-{4}--4>>>>>9-|
|---------------------------|------{2}----|--------------|--------------|
|---------------------------|-------------|--------------|--------------|
|---------------------------|-------------|--------------|--------------|

Guitar 2 (chord changes here not accurately in correspondence with lyrics)
F F7 Bb Am Dm G7
Love u whenever we're together Love u when were apart


Guitar 1 (12 String)
|--8>6-5>5--5>3-3>1--|
|--------------------|
|--9>7-7>5--5>3-3>2--|
|--------------------|
|--------------------|
|--------------------|

Guitar 2
C7
3. And when (go to verse 3)


Coda

Guitar 1 (12 String)
|-------------------|-----------------------------|----------------------|
|-------------------|-----------------------------|----------------------|
|----3------(2)-----|-----------------------------|--------3----2--------|
|----3------(3)-----|-----------------------------|--------3----3---3----|
|----1------(3)-----|-----------------------------|--------1----3---2----|
|-------------------|-----------------------------|----------------------|

Guitar 2
Dm Bb F Bb C7 Dm Bb F Fdim
you For the things you do__________endear_____you___to____me___And

Guitar 1 (12 String)
|-----1>>1----5>>5--|---1>>1------1-----------|--1>>1------1------------|
|-------------------|--------4-2----4>>4-2----|-------4-2-----4>4-2-----|
|--3--------5-------|----------------------1--|----------------------1h2|
|-------------------|-------------------------|-------------------------|
|-------------------|-------------------------|-------------------------|
|-------------------|-------------------------|-------------------------|

Guitar 2
Gm C7 Db7
you know I will_____________ I will______



Guitar 1 (you should know its a 12 string by now but a 6 string should be fine)
|-1>1------1-----------|-1>1----1---------|----------------|------0-----1--|
|-----3-1----3>3-1-----|----3-1---4>4-3-1-|----------------|-3-------------|
|------------------1h2-|------------------|-{3}------------|---------------|
|----------------------|------------------|-------{2}------|---------------|
|----------------------|------------------|----------------|---------------|
|----------------------|------------------|----------------|---------------|

Guitar 2
F F7 Bb Am Dm
______________________________ Ooo_____________________________


Guitar 1
|--------------------|------------------|
|----------{1}-------|------------------|
|--{3}---------------|--{2}-------------|
|--------------------|------------------|
|--------------------|------------------|
|--------------------|------------------|

Guitar 2
Gm7 C7 F
la________________________



There all done! Thats the whole song 100% correct
unless i accidently put in wrong numbers
ah well

OptimusPrime

Submitted by OptimusPrime at Sun 01 Dec, 2002 8:47 am

Author: ?
Composer: ?
Publisher: ?
Language: English

Reactions

CommonCrawl [Bot]

Follow Muzikum