The Beatles

The Beatles
Michelle Ver 3 (Guitar tab)

michelle

chords
F Bbm7 Eb6 C Fdim Fm Ab7 Db Bdim
8 9 9 8 # 8 4 9 7
6 6 9 8 9 9 7 9 6
5 6 9 9 10 10 5 10 7
7 8 9 10 9 10 4 11 6
# # # 10 # 8 6 11 #
# # # 8 # # 4 9 #

intro/chorus
(riff 1)
Fm Fmaj7 Fm7 Fm6 Bm/F C
-----8-----8-----8-----8-----8--6-----8---8------8----
-----9-----9-----9-----9-----6--6--9--8---8------8----
-10-----9-----8-----7-----6-----6-----9---------------
--------------------------------------10-----10----10-
------------------------------------------------------
------------------------------------------------------

riff 2
Ddim
--------------
-6--9--12--9--
-7--10-13--10-
-6--9--12--9--
--------------
--------------

verses
F Bbm7 Eb6 Ddim(w/riff 2) C Fdim C
Michelle ma belle These are words that go together well My Michelle


F Bbm7 Eb6 Ddim(w/riff 2) C Fdim C
(1)Michelle ma belle, Sont les mots qui vont tr�s bien ensemble Tres bien ensemble
(2)Michelle ma belle, Sont les mots qui vont tr�s bien ensemble Tres bien ensemble
(3)Michelle ma belle, Sont les mots qui vont tr�s bien ensemble Tres bien ensemble

pre chorus
Fm
I love you, I love you, I love you,
I need to, I need to, I need to,
I want you, I want you, I want you,

Ab7 Db C Fm
That�s all I want to say, Until I find a way
I need to make you see, Oh what you mean to me,
I think you know but now, I�ll get you somehow,

chorus
(w/riff 1)
I will say the only words I know that you�ll understand.
Until I do I�m hoping you will know what I mean
Until I do I�m telling you so you�ll understand.

solo
-----------------------------------------------------------------------------------
-----------------------------------------------------------------------------------
-----------------------------------------------------------------------------------
---------7----8-10--11---6----5---5-6-8----------5-6---------6---------------------
-8--8-10---------------------------------6--8--8-----5--7--5----8--7--------7-8-10-
-----------------------------------------------------------------------8-10--------

Outro
F Bbm7 Eb6 Ddim(w/riff2) C Bdim C

OptimusPrime

Submitted by OptimusPrime at Sun 01 Dec, 2002 8:47 am

Author: ?
Composer: ?
Publisher: ?
Language: Indonesian

Reactions

1 post

CommonCrawl [Bot]
Anonymous
Thu 12 Jun, 2003 4:35 am
WOW! Someone actually got this song right!
I've seen so many attempts that are WAY off the mark. This sounds right on to me.
1 post • Page 1 of 1

Follow Muzikum