The Beatles

The Beatles
Here Comes The Sun Ver 4 (Guitar tab)

here comes the sun

capo 7th fret
* ** * **
D G A7
-2---0-2-------2-0-----------0----- -----------0- -0-
-3-3-3-3---3-----------0-3-------0- -2-0-2-3---2- -2-
-2---------2-----------0---------0- -0-0-0-0---0- -0-
-0-------0-0-0-----0---0---------0- -2---2---2--- -2-
---------------------0-2---2---2--- -0---0---0--- -0-
---------------------0-3---3---3--- ------------- ---

chorus

here comes the sun here comes the sun and i say its alright

****
D G E7 D
---2-0-2-----2---0-2-2----2-0-0-2---0-0-0-0-0----2-0---
---3---3-3-----3---3-3-0--0---0---0-3-3-3-3-3--------3-
-2-2-------2-----------0--0---0---0-1-1-1-1-1----------
-0---------0-----------0--0---0---0-0-0-0-0-0----------
-----------------------2------2-----2-2-2-2-2----------
-----------------------3------3-----0-0-0-0-0----------

*** *****
******
-------0-----0-----0-----0--------- ---2-0-2-2-0-----------
-----3-----3-----3-----3---3p2----- ---3-3-3-3-2-0-2-3-2-
-2s4-----2-----0-----2---------4p2- -2-2-2-2-2-0-0-0-0-0-
----------------------------------- -0-------0-2-2-2-2-2-
----------------------------------- -----------0-----------
----------------------------------- -----------------------

verses

(1)little darling its been a long cold lonely winter
(2)little darling the smiles returning to there faces
(3)little darling it feels that ice is slowly melting

***
*****
D G A7
---2---0-2---2-0---------0--------0-----------
-3---3-----3-----3-0-3---0--3---0-2-0-2-3---2-
-2---------2-----2-0-0-0--------0-0---0-0---0-
-0-----------------0-0-0---0--0---2---2-2---2-
-0---------------------2---2--2---0---0-------
-----------------------3---3--3---------------

little darling it feels like years since its been here
little darling it feels like years since its been here
little darling it feels like years since its been clear

D G A7 ****
---2---0-2---2-0---------0--------0-----------
-3---3-----3-----3-0-3---0--3---0-2-0-2-3---2-
-2---------2-----2-0-0-0--------0-0---0-0---0-
-0-----------------0-0-0---0--0---2---2-2---2-
-0---------------------2---2--2---0---0-------
-----------------------3---3--3---------------

bridge
******
6x
sun sun sun here it comes
E7 C G D A E7 6x
-------------------------------2-0-2---0-0-0- -------------0-0-0-
-----------1-------------------3-3-3---2-2-2- -0-2-3--3-2-3--3---
---------2-------0-----0-----2-2-2-2---0-0-0- -0-0-0--0-0-0------
-----2-3-------2-----0-------0-------2-2-2-2- -------------------
-0-4---------3-----2-------2---------0-0-0-0- -------------------
-------------------------3------------------- -------------------

-3-3-3-3-
-2-2-2-2-
-0-0-0-0-
-2-2-2-2-
-0-0-0-0-
---------

to fade

ending
-----------------------2-
-----1-----------------3-
---2-------0-----0-----2-
-3-------2-----0-------0-
-------3-----2-------2---
-------------------3-----

OptimusPrime

Submitted by OptimusPrime at Sun 01 Dec, 2002 8:47 am

Author: ?
Composer: ?
Publisher: ?
Language: English

Reactions

CommonCrawl [Bot]

Follow Muzikum