The Beatles

The Beatles
Twist And Shout Acoustic (Guitar tab)

Twist And shout by beatles
Intro

E ------------------------------
B ------------------------------
G ----------------------0-0-----
D ------0-0-------0-2-4-----4-2-
A 0-2-4-------2-0---------------
E ----------3-------------------


Main part
DD GG AAAA

AHH Bit
A for four bars A7 for two bars

Outro

E --------------------5
B --------------------4
G --------------------4
D ---------------------
A -- 0-1--2--3--4--
E 4--------------

OptimusPrime

Submitted by OptimusPrime at Sun 01 Dec, 2002 8:46 am

Author: ?
Composer: ?
Publisher: ?
Language: English

Reactions

CommonCrawl [Bot]

Follow Muzikum