The Beatles

The Beatles
Fool On The Hill (Guitar tab)

Fool on the Hill
by the Beatles

This is really just an easier version thanwhat else is on the site
but its not really as good.

|-------------------|---------------------------|
|-------------------|---------------------------|
|---------------4-4-|-2-4-7-7-7-7-7-6-2-4-9-9-9-|
|-4-4-4-4---5-7-----|---------------------------|
|---------5---------|---------------------------|
|-------------------|---------------------------|

|----------------------------------------------|------------------|
|----------------------------------------------|------------------|
|-2-4-9-9-9-2-4-9-9-9-7-9-11--11-9-7-7-7-5-5-7-|-2-4-9-9-9-7-9-11-|
|----------------------------------------------|------------------|
|----------------------------------------------|------------------|
|----------------------------------------------|------------------|

|-----------------------------------------------------|
|-----------------------------------------------------|
|-11-9-7-5-3-2--0-2-3-2-0-0--2-3-5-3-2-2--2-3-5-7-8-7-|
|-----------------------------------------------------|
|-----------------------------------------------------|
|-----------------------------------------------------|

OptimusPrime

Submitted by OptimusPrime at Sun 01 Dec, 2002 8:46 am

Author: ?
Composer: ?
Publisher: ?
Language: English

Reactions

CommonCrawl [Bot]

Follow Muzikum