The Beatles

The Beatles
Ballad Of John And Yoko (Guitar tab)

the ballad of john and yoko

chords
E E7 A B7 E6
0 0 0 3 0
0 3 2 0 2
1 1 2 3 1
2 2 2 2 2
2 2 0 3 2
0 0 # # 0
intro
E

verses
riff
-12-------------
----14r12-14r12-
----------------
----------------
----------------
----------------
E
(1)standing on the dock in southampton
(2)finally made the plane into paris
(3)paris to the amsterdam hilton
(4)made a lighting trip to vienna
(5)caught the early plane back to london

trying to get to holland or france
honeymooning down on the siene
talking in our beds for a week
eating chocolate cake in a bath
fifty acorns tied in a sack

E7
the man in the mac said youve got to go back
peter brown called to say you can make it ok
the newspapers said say what you doing in bed
the newspapers said shes gone to his head
the men from the press said we wish you success

you know they didnt even give us a chance
you can get married in gibralter near spain
i said were only tring get us some peace
they look just like to gurus in drag
its good to have the both of you back

chorus
riffs
A E B7
-9-8-7-5- -4-3-2-0- -11-10-9-7-
--------- --------- -----------
-9-8-7-6- -4-3-2-1- -11-10-9-8-
--------- --------- -----------
--------- --------- -----------
--------- --------- -----------
A E
christ you know it aint easy you know how hard it can be
B7 E
the way things are going there gonna crucify me

bridge
A
saving up your money for a rainy day
giving all your clothes to charity
lastnight the wife said oh boy when youre dead
B7
dont take nothing with you but your soul think?

coda
E B7 E E6
---------------------------------------------------
---------------4-4-4-4-4-4-4-2-2-2-2---------------
-----------1-2-4-4-4-4-4-4-4-2-2-2-2-1-------------
-----1-2-4-----------------------------4-2-2---2---
-2-4-----------------------------------------4---4-
---------------------------------------------------

OptimusPrime

Submitted by OptimusPrime at Sun 01 Dec, 2002 8:46 am

Author: ?
Composer: ?
Publisher: ?
Language: English

Reactions

CommonCrawl [Bot]

Follow Muzikum