The Beatles

The Beatles
Sexy Sadie (Guitar tab)

sexy sadie

chords

G C(2) D(2) F# F A#m Am Bm
3 0 3 2 5 2 1 4 5 2
3 1 5 3 7 2 1 4 5 3
4 0 5 2 7 3 2 4 5 4
5 2 5 0 7 4 3 6 7 4
5 3 3 # 5 4 3 6 7 2
3 # # # # 2 1 4 5 #

verses

Bm(riff)
---------2--------
-------3---3-------
-----4-------4------
---4-----------4----
-2---------------
-----------------

G F# Bm(riff)
(1)sexy sadie what have you done
(2)sexy sadie you broke the rules
(3)sexy sadie how did you know
(4)sexy sadie youll get yours yet

C D G F#
you made a fool of every one
you layed it down for all to see
the world was waiting just for you
however big you think you are

C D G F#
you made a fool of every one
you layed it down for all to see
the world was waiting just for you
however big you think you are

F D(2)
sexy sadie oh what have you done
sexy sadie oh you broke the rules
sexy sadie oh how did you know
sexy sadie oh youll get yours yet

chorus

riff
G Am7 Bm C
------------------------------------
------------------------------------
----------------------------------9-
-----3-------5---------7--------8---
-3h5-----5h7-------7h9-----9h10-----
------------------------------------

G Am Bm C2
(1)one sunny day the world was waiting for a lover
(2)we gave her everything we owned just to sit her at the table

G Am Bm C2
she came along and turned on everyone
just a smile would enlighten everything

Am G# G
sexy sadie the greatest of them all
sexy sadie shes the latest and the greatest of them all

solo
Bm C D G F#7 F D7 G F#7
----------------------------- --------- ---------------------
----------------------------- --------- ---------------------
---7-7b9--------------------- --------- ---------------------
-9-------7--7--------------7- -9b-9b-7- -7b-7b------9b-9b-11-
--------------7-9-10--9-10--- --------- -------5-------------
----------------------------- --------- ---------------------

OptimusPrime

Submitted by OptimusPrime at Sun 01 Dec, 2002 8:46 am

Author: ?
Composer: ?
Publisher: ?
Language: Lingala

Reactions

CommonCrawl [Bot]

Follow Muzikum