The Beatles

The Beatles
Let It Be Ver 5 (Guitar tab)

let it be

chords
C G Am F(2) Em Dm Bb G6
0 3 0 1 1 0 1 1 3
1 0 1 1 1 0 3 3 5
0 0 2 2 2 0 2 3 4
2 0 2 3 3 2 0 3 5
3 2 0 # 3 # # 1 #
# 3 # # 1 # # # #

verses

C G
(1)when i find my self in times of trouble
(2)and when the broken hearted people
(3)and when the night is cloudly there is

Am F
mother mary comes to me
living in the world of greed
still a light that shines on me

C G F C
speaking words of wisdom let it be
there will be no answer let it be
shine until tommorrow let it be

C G
and in my hour of darkness she is
and though there might be parting theres
i wake up to the sound of music

Am F
standing right in front of me
still a chance that they will see
mother mary comes to me

C G F C
speaking words of wisdom let it be
there will be an answer let it be
whisper words of wisdom let it be

chorus
Am G6 F C
let it be let it be let it be let it be

C G F C
there will be an answer wisdom let it be

Am G6 F C
let it be let it be let it be let it be

C G F C
whisper words of wisdom wisdom let it be

2x
F E/C G7/D C Bb F/A G F(2) C


solo
C G Am F
------------------------------------------------------
------------------------------------------------------
-5---5-----------------------5-----7b9----------9r7-5-
-5h7-5-----------5-5---5-5h7--------------------------
-------7-5-3-5s7-----7--------------------------------
------------------------------------------------------

C G F C
----8-------------5----------------------------------------
------------------5----------------------------------------
7s9---9s7-5h7-7b9------9r7-5-----------------------------5-
-----------------------------7p5-7p5-----------------5h7---
-------------------------------------7s5-3h5-3-------------




C G Am F
----------------------------------------8-10b12-12r10-8h10-
-----------8-------8-----8-10------8h10--------------------
-5---5-7s9-----7s9---7s9-----------------------------------
---7-------------------------------------------------------
-----------------------------------------------------------
-----------------------------------------------------------

C G F C
-8------------15b17-----------------------------------
---------------------------15b17p13-15-17r15p13h15-13-
------------------------------------------------------
------------------------------------------------------
------------------------------------------------------
------------------------------------------------------

OptimusPrime

Submitted by OptimusPrime at Sun 01 Dec, 2002 8:46 am

Author: ?
Composer: ?
Publisher: ?
Language: English

Reactions

CommonCrawl [Bot]

Follow Muzikum