The Beatles

The Beatles
Drive My Car Ver 2 (Guitar tab)

drive my car

chords
D G A Bm G
5 3 5 2 3
7 3 5 3 0
7 4 6 4 0
7 5 7 4 0
5 5 7 2 2
# 3 5 # 3

intro

-------------------------------
-------------5b6-5-7-7-5---5h7-
---5-5b6-5-------5-7-7-5---5h7-
-7---------7-------------5-----
-------------------------------
-------------------------------

verse riff
D G
----------------- -----------------
----------------- -----------------
----------------- -----------------
---------7------- -----------------
-5---7s9---9s7-5- ---------5-------
----------------- -3---5s7---7s5-3-

verses

D G
(1)asked that girl what she wanted to be
(2)told that girl that my prospects were good
(3)told that girl i could start right away

D G
she said baby cant you see
she said baby its understood
she said listen to me babe ive got something to say

D G
i wanna be famous a star of the screen
working for peanuts is all very fine
ive got no car and its breaking my heart

A
but you can do something in between
but i can show you a better time
but i got a driver and thats a start

solo riff
---0-1-0---
-3-0-3-0-3-
-4-------4-
-----------
-----------
-----------

chorus

Bm G Bm G
baby you drive my car yes im gonna be a star
Bm
baby you drive my car
E7 A7 D G A
--------------------------------------------------
--------------------------------------------------
--------------------------------------------------
--------------------------------------------------
---------0-------5---5-----5----------------7-----
-0-2-3-0---3-2-0-------5s7---7--3--5--5-5-9---9-5-

(with riff)
and maybe ill love you

solo
3x
--------8b10-------------------------
---------------8r6-8---8---8-6b7-----
-5---7-------7---------------------7-
-------------------------------------
-------------------------------------
-------------------------------------

bottleneck
-5--5s8-8--8s10-10--10s13-13s8--10-
-----------------------------------
-----------------------------------
-----------------------------------
-----------------------------------
-----------------------------------

outro riff
to close
-8b----
-------
-------
-------
-------
-------

OptimusPrime

Submitted by OptimusPrime at Sun 01 Dec, 2002 8:46 am

Author: ?
Composer: ?
Publisher: ?
Language: English

Reactions

CommonCrawl [Bot]

Follow Muzikum