The Beatles

The Beatles
Get Back Ver 2 (Guitar tab)

Beatles - Get Back
==================

[Intro]
A5 A5 A5 A5 G D (&Solo1)

Riff1 (intro)
e--------------------------|--------------------------|--------------------------|--------------3----2----|
B--------------------------|--------------------------|--------------------------|--------------0----3----|
G-----2-----2-----2-----2--|-----2-----2-----2-----2--|-----2-----2-----2-----2--|-----2-----2--0----2----|
D--2--2--2--2--2--2--2--2--|--2--2--2--2--2--2--2--2--|--2--2--2--2--2--2--2--2--|--2--2--2--2--0----0----|
A--0--0--0--0--0--0--0--0--|--0--0--0--0--0--0--0--0--|--0--0--0--0--0--0--0--0--|--0--0--0--0--2---------|
E--------------------------|--------------------------|--------------------------|--------------3---------|
A5 A5 A5 A5 G! D!

Solo1 (Piano intro)
e---|---|---|--5--5-5----3----2----|
B---|---|---|------------3----3----|
G---|---|---|------------4----2----|
D---|---|---|--7--7-7--------------|
A---|---|---|----------------------|
E---|---|---|----------------------|
A5 A5 A5 A5 G D

Riff2 verse
e-------------
B-------------
G-------------
D-2--4--2--4--
A-0--0--0--0--
E-------------
A5 A6 A5 A6

[Verse] (rock 'n roll)
A5 A6 A5 A6 A5 A6 A5 A6
Jo_jo_ was a man_ who thought__ he was a loner_
D5 D6 D5 D6 A5 A6 A5 A6 (Solo2)
But_ he knew it wouldn't_ last_
A5 A6 A5 A6 A5 A6 A5 A6
Jo_jo_ left his home__ in Tu__cson_, A_rizo_na_
D5 D6 D5 D6 A5 A6 A5 A6 (Solo2)
For_ some Califor_nia grass__

Solo2 Guitar verse solo (..last)
e----------------12---------------------|
B------10--12b14-----12b14r12-10--------|
G--11-----------------------------11----|
D---------------------------------------|
A---------------------------------------|
E---------------------------------------|
A5 A6 A5 A6

[Chorus1] (play Solo3)
A5 A6 A5 A6 A5 A6 A5 A6
Get_ back___ , get back__
D5 D6 D5 D6 A5 A6 G! D!
Get_ back___ to_ where_ you_ once_ belonged_
A5 A5 A7! A5 A5 A7!
Get_ back___, get back__
D5 D6 D5 D6 A5 A6 A5 A6
Get_ back___ to_ where_ you_ once_ belonged_ - Get_ back_ Jo_jo_

Solo3 (Chorus)
e---------------9-9-9-9-9--|---------------9-9-9-9-9--|---------------8-8-8-8-8--|---------------9-9-9-9-9--|
B---------------8-8-8-8-8--|---------------8-8-8-8-8--|---------------7-7-7-7-7--|---------------8-8-8-8-8--|
G---------------9-9-9-9-9--|---------------9-9-9-9-9--|---------------7-7-7-7-7--|---------------9-9-9-9-9--|
D--------------------------|--------------------------|----------7---------------|----------7---------------|
A----7--9--10--------------|----7--9--10--------------|----7--9------------------|----7--9------------------|
E-9------------------------|-9------------------------|-9------------------------|-9------------------------|

[Solo1] (Solo4)
A5 A6 A5 A6 A5 A6 A5 A6
D5 D6 D5 D6 A5 A6 G! D!
A5 A6 A5 A6 A5 A6 A5 A6
D5 D6 D5 D6 A5 A6 G! D!

Solo4
e--------------------------------|----12----------------------|-------------------------|---------------|
B------10--10--10--10----12--12b-|----------12r---10------10--|-------------------------|---------------|
G--11----------------------------|--------------------11------|-----------7----5-----5b-|---------------|
D--------------------------------|----------------------------|-----7--9----------7-----|---------------|
A--------------------------------|----------------------------|--9----------------------|---------------|
E--------------------------------|----------------------------|-------------------------|---------------|
A5 A5 D5 A5 G! D!

e------------------------------|------12----------------------
B-----10--10----10---10----12--|--12b-------12r---10------10--
G--11--------------------------|----------------------11------
D------------------------------|------------------------------
A------------------------------|------------------------------
E------------------------------|------------------------------
A5 A5

e-------------------------|----------------------------|
B-------------------------|-----7--5------7--5---5-----|
G-----------7----5-----5--|--5---------5-------7-------|
D-----7--9----------7-----|----------7-----------------|
A--9----------------------|----------------------------|
E-------------------------|-------------------------0--|
D5 A5 G! D!

[Chorus2]
A5 A6 A5 A6 A5 A6 A5 A6
Get_ back___, get back__
D5 D6 D5 D6 A5 A6 G! D!
Get_ back___ to_ where_ you_ once_ belonged_
A5 A5 A7! A5 A5 A7!
Get_ back___, get back__
D5 D6 D5 D6 C5! D5! [nc] (Solo5)
Get_ back___ to_ where_ you_ once_ belonged_ Get_ back_ Jo!

Solo5 (Piano end of Chorus2 - get back Jo!)
-------------------|------2-------0--------|-------------------------|
-------------------|-----------------------|--3-------1-----0--------|
----------------2--|---------0-------------|-------------2-----2-----|
-------------------|------------------4----|-----2----------------2--|
-------------------|-----------------------|-------------------------|
-------------------|-----------------------|-------------------------|

[Solo2] (Solo6)
A5 A6 A5 A6 A5 A6 A5 A6
D5 D6 D5 D6 A5 A6 A5 A6
A5 A6 A5 A6 A5 A6 A5 A6
D5 D6 D5 D6 A5 A6 G! D!

Solo6 (piano transcribed for guitar)
----24---24---24--24-----24--|----24---24-----24-------------------|----20------20-17-------17--17----------|----12--------------|
----22---22---22--22-----22--|----22-------24----24-22-------------|----19---19-------19-17---------19--17--|----10--------------|
-----------------------------|-------------------------23--21--23--|----21------------------19--17--17--14--|----12--------------|
-----------------------------|-------------------------------------|------------------------------------17--|--------------------|
-----------------------------|-------------------------------------|----------------------------------------|--------------------|
-----------------------------|-------------------------------------|----------------------------------------|--------------------|

--24--24--24---24--24--24---24--|-------24-----20-19-17-------------|
------22--22---22--22--22---22--|-------22--22----------19--18--19--|
--------------------------------|-----------------------------------|
--------------------------------|-----------------------------------|
--------------------------------|-----------------------------------|
--------------------------------|-----------------------------------|

----20------20-17-------17------17------|--------------------|
----19---19-------19-17-19------19--17--|----17--------------|
----21------------------19--17--17--14--|--------------------|
------------------------------------17--|--------------------|
----------------------------------------|--------------------|
----------------------------------------|--------------------|

[Verse] (rock 'n roll)
A5 A6 A5 A6 A5 A6 A5 A6
Sweet_ Loretta Mar__tin_ thought_ she was a woman_
D5 D6 D5 D6 A5 A6 A5 A6 (Solo2)
But_ she_ was_ another man__
A5 A6 A5 A6 A5 A6 A5 A6
All_ the_ girls_ a_round_ her say_ she's got it coming_
D5 D6 D5 D6 A5 A6 A5 A6 (Solo7)
But_ she_ gets_ it while_ she can_

Solo7 Guitar verse solo (..can)
e-------------------------
B-------------------------
G-12-9-------9------------
D------11-9----11-9-11----
A-------------------------
E-------------------------
A5 A6 A5 A6

[Chorus3]
A5 A6 A5 A6 A5 A6 A5 A6
Get_ back___, get back__
D5 D6 D5 D6 A5 A6 G! D!
Get_ back___ to_ where_ you_ once_ belonged_
A5 A5 A7! A5 A5 A7!
Get_ back___, get back__
D5 D6 D5 D6 A5 A6 A5 A6
Get_ back___ to_ where_ you_ once_ belonged_ - Get_ back_ Loretta_!

[Solo3] (Solo8)
A5 A6 A5 A6 A5 A6 A5 A6
D5 D6 D5 D6 A5 A6 G! D!
A5 A6 A5 A6 A5 A6 A5 A6
D5 D6 D5 D6 A5 A6 G! D!

Solo8
--------------------------------------|------12----------------------|-------------------------|
-----10--10-10--10-10--10-10--12--12--|--12b-------12r---10------10--|-------------------------|
--11----------------------------------|----------------------11------|-----------7----5-----5--|
--------------------------------------|------------------------------|-----7--9----------7-----|
--------------------------------------|------------------------------|--9----------------------|
--------------------------------------|------------------------------|-------------------------|

----------------------------|--------------------------------|----------12--12--------------|
-----7--5-------------------|------10--10--10----10--12--12--|--12b-----12b-12r-10------12--|
--5----------5-7--5---5--7--|--11----------------------------|----------------------11------|
-----------7--------7-------|--------------------------------|------------------------------|
----------------------------|--------------------------------|------------------------------|
----------------------------|--------------------------------|------------------------------|

--------------------------------|--------------------------------------|
----10--12b-10--12b-10--12b-10--|--10--12b-10----10--12b-10----10--12--|
--------------------------------|-------------12------------12---------|
--------------------------------|--------------------------------------|
--------------------------------|--------------------------------------|
--------------------------------|--------------------------------------|

[Chorus4]
A5 A5 A7! A5 A5 A7!
Oh get_ back___, get back__
D5 D6 D5 D6 A5 A6 A5 A!
Get_ back___ to_ where_ you_ once_ belonged_
A5 A5 A7! A5 A5 A7!
Get_ back___, get ba__a__ack___
D5 D6 D5 D6 C5! D5! [nc] drums
Get_ back___ to_ where_ you_ once_ belonged_ oooooh___

A5 A6 A5 A6 A5 A6 A5 A6
Get back Loretta
D5 D6 D5 D6 A5 A6 G! D!
Your mother's waiting for you
A5 A6 A5 A6 A5 A6 A5 A6 (Solo3)
Wearing her high-heel shoes And her low-neck sweater
D5 D6 D5 D6 A5 A6 G! D!
Get on home Loretta

[Chorus5]
A5 A5 A7! A5 A5 A7!
Get_ back________, get ba__a__a_a_ack_
D5 D6 D5 D6 A5 A6 G! D!
Get_ back___ to_ where_ you_ once_ belonged_

Fade out..

Chords:
A5 x022xx
A6 x04xxx
G 320033
D xx0232
D5 xxx02x
D6 xxx04x
A7 x02223
C5 x355xx

Transcribed by arjan@rawktabs.tmfweb.nl
____ _ _ _
| _ \ __ ___ _| | _| |_ __ _| |__ ___
| |_) / _` \ \ /\ / / |/ / __/ _` | '_ \/ __|
| _ < (_| |\ V V /|

OptimusPrime

Submitted by OptimusPrime at Sun 01 Dec, 2002 8:46 am

Author: ?
Composer: ?
Publisher: ?
Language: English

Reactions

CommonCrawl [Bot]

Follow Muzikum