The Beatles

The Beatles
Yesterday Ver 3 (Guitar tab)

Title: yesterday
Email: arynlitchfield@yahoo.com

ok this is real hard to get it sounding good. but if
you get it right it sounds top stuff. bear with it though it
took me a wile to get it right.

this is actually a strange way to play Yesterday but its 100%
correct and sounds ace.

there is a special technique to get it to sound right.
roll your fingers across each chord to get that spanish
sound there should be a micro second gap between the
notes hit in the chord. it is difficult to master but it makes you
sound king.

GOOD LUCK


-----------------0-|-----0-2-4-5-7-8-|-7-5-5---------|-----5-5-3-1-0--|-1-0---
-3-1-1---------1---|-----3---3-------|-5-------1---1-|---------0----3-|-1-1---
-0-----------0-----|---2-----4-------|-5-------2---2-|---2-5---0------|-2-0---
-2---------2-------|-----------------|---------------|-----3----------|-3-----
-3-------3---------|-2---------------|-0-----0-------|----------------|-------
-------3-----------|---------0-------|-----------3---|-1-----------3--|-------


-0---------|---0-----|---0-0---------|-0-------0-------|-5-7-8--7-5-|-7----5--
-1-----3---|-1---3---|-1---------1---|-3-------3-------|-5---10-----|-6-------
-0---0-----|-2---5-2-|-2-------0---0-|-2-------1-------|-5-7-9------|-----5---
-----------|-----4---|-------2-------|-----------------|---5--------|---7-----
---3-------|-0---5---|-----3---------|---2-2-2---------|-0---8------|-5-------
---------3-|---------|-1-------------|-----------0-0-0-|------------|---------


-3-5-|-0---------------|-3-7-|-8-----------0-0--------------------------------
-3---|-1-----1-----1---|-3---|-8-8-8-----------3------------------------------
-4---|-0---0-----0-----|-4---|-9-----10-10------------------------------------
-----|---2-----3-----2-|-----|------------------------------------------------
-----|-3---------------|-----|------------------------------------------------
-3---|-----------------|-3---|-8----------------------------------------------

OptimusPrime

Submitted by OptimusPrime at Sun 01 Dec, 2002 8:46 am

Author: ?
Composer: ?
Publisher: ?
Language: English

Reactions

CommonCrawl [Bot]

Follow Muzikum