The Beatles

The Beatles
For You Blue Ver 2 (Guitar tab)

FOR YOU BLUE

by The Beatles
Words & Music by George Harrison
Album: Let It Be
(c) 1970



[Capo V]

------
INTRO:
------
D7 G7
|---------------------------------------------------------|
|-----------------------------------------------1--1-1--1-|
|--------------------------------------------2--2--2-2--2-|
|------2p0-----------2--2-2--2-2--2-------------0--0-0--0-|
|--------------0--2--0--0-0--0-0--0-----------------------|
|---0-------3------------------------0--1--2--------------|

E7 A7
|------------2--2-2--2-2--2--------0--------0---------0-------0------|
|------------0--0-0--0-0--0-------------3-------3---------3-------3--|
|------------2--2-2--2-2--2----0h1----------------0h1----------------|
|---------1--1--1-1--1-1--1------------------------------------------|
|---0-1-2----2--2-2--2-2--2------------------------------------------|
|------------------------------------0----0---0---------0---0---0----|

------
VERSE:
------

[Open D7 Tuning]

E--D
B--C
G--F#
D--D
A--D
E--D

[J. Lennon played with slide on steel string acoustic]

(Twelve bar blues in D)

D7 G7 D7
|-/12----12---12---/5----5----5---/12--12--12----12----/12---12---12-|
|-/12----12---12---/5----5----5---/12--12--12----12----/12---12---12-|
|-/12----12---12---/5----5----5---/12--12--12----12----/12---12---12-|
|-/12----12---12---/5----5----5---/12--12--12----12----/12---12---12-|
|--------------------------------------------------------------------|
|--------------------------------------------------------------------|

G7 D7
|-/5--5---5---5----/5--5---5---5--/12--12--12----12----/12---12--12-|
|-/5--5---5---5----/5--5---5---5--/12--12--12----12----/12---12--12-|
|-/5--5---5---5----/5--5---5---5--/12--12--12----12----/12---12--12-|
|-/5--5---5---5----/5--5---5---5--/12--12--12----12----/12---12--12-|
|-------------------------------------------------------------------|
|-------------------------------------------------------------------|

A7 G7 D7 A7
|-/7---7---7---7---/5--5---5--5---0---0------------------/7--7--7-|
|-/7---7---7---7---/5--5---5--5---0---0------------------/7--7--7-|
|-/7---7---7---7---/5--5---5--5---0---0------------------/7--7--7-|
|-/7---7---7---7---/5--5---5--5---0---0------------------/7--7--7-|
|-----------------------------------------------------0-----------|
|----------------------------------------0---4--5--6--------------|

Because you're sweet and lovely girl I love you
Because you're sweet and lovely girl it's true
I love you more than ever girl I do

I want you in the morning girl I love you
I want you at the moment I feel blue
I'm living every moment girl for you

-----
SOLO:
-----

D7 G7 D7
|-----12-------------5-------------12------------------12-----------|
|--------12------------5---------------12--------------12--12-------|
|-----------12------------5---/12----------12\----------------12----|
|-/12------------/5-----------/12--------------------------------12-|
|-----------------------------/12--------------0--------------12----|
|-------------------------------------------------/12---------------|

G7 D7
|-----5------------5------------12----------------------------------|
|-/5-----5-----------5------------------12--------------------------|
|-/5--------5----------5------------12-------12--12--12--12--12--12-|
|-/5-----------/5----------/12--------------------------------------|
|-/5----------------------------------------------------------------|
|-------------------------------------------------------------------|

A7 G7 D7 A7
|--------7---------------5--------------------------/7--7--7--7-|
|-/7--7-----7--------/5----5------------------------/7--7--7--7-|
|-/7--7--------7-----/5-------5---0-----------------/7--7--7--7-|
|-/7--7--------------/5-----------------------------/7--7--7--7-|
|-----------------7------------------------------0--------------|
|------------------------------------0--4--5--6-----------------|

D7 G7
|-/12---------------------------|
|-/12---12--12----/17---17---17-|
|-/12----12--12---/17---17---17-|
|-/12---12--12----/17---17---17-|
|-------------------------------|
|-------------------------------|

(spoken)

Walk
Walk cat walk
go Johnny go
same old tale of blues
Elmore James got nothin' on this baby

[Continue throughout piano solo in verse format]

VERSE:

I loved you from the moment I saw you
You looked at me and that's all you had to do
I feel it now I hope you feel it too

Because you're sweet and lovely girl I love you
Because you're sweet and lovely girl it's true
I love you more than ever girl I do

Ending:

|-------------------/12-|
|-------------------/12-|
|-------------------/12-|
|-------------------/12-|
|----------------0------|
|-0--1--2--3--4---------|

Tale of Blues

OptimusPrime

Submitted by OptimusPrime at Sun 01 Dec, 2002 8:46 am

Author: ?
Composer: ?
Publisher: ?
Language: English

Reactions

CommonCrawl [Bot]

Follow Muzikum