The Beatles

The Beatles
Yesterday Ver 4 (Guitar tab)

yesterday

tunedown to G

intro
4x

F
---3-3-3-
---3-3-3-
---0-0-0-
---------
---------
-3-------

yesterday all my troubles seemed so far away
suddenly im not half the man i used to be
yesterday love was such an easy game to play

F Em A7 Dm Dm7/C
---3-3-3---3-3-----2-2-2---2-2-3---0-0-0---0---0-
---3-3-3---3-3-----2-2-2---0-0-0---0-0-0---0---0-
---0-0-0---0-0-----2-2-2---2-2-2---0-0-0---0---0-
---------------------------------2-------2---0---
-------------------------2-----------------------
-3-------3-----0-2-------------------------------

now it looks as through there here to stay
theres a shadow hanging over me
now i need a place to hide away

Bb C7 F F/E
---0-0-0---2-2-2---3-3-2---3---3-
---1-1-0---1-1-1---3-3-3---3---3-
---0-0-0---2-2-2---0-0-0---0---0-
---------0-----------------------
-3-------------------------------
-----------------3-------3---2---

i believe in yesterday
yesterday came suddenly
i believe in yesterday

Dm7 G7 Bb F
-----------0-0-0-0--3---3-3-3-
---3-3-----2-2-2-1--3---3-3-3-
---0-0-----2-2-2-0--0---0-0-0-
---2-2-----------2------------
---------0-------3------------
-0-----0------------3-3-------

why she had to go i dont know she wouldnt say
i said somethings wrong now i long for yesterday

A7sus4 A7 Dm C Bb Dm/A Gm6 C7 F
---0-0-0---2-2-2-0---2---3---2-0---2-2-2---2-2-2---3-3-3---3-3---
---0-0-0---0-0-0-------------------1-1-1---1-1-1---3-3-3---3-3---
---2-2-2---2-2-2-------------------2-2-2---2-2-2---0-0-0---0-0---
-----------------2---0-------------------0-----------------------
-2-------2---------------3---2-2-0-------------------------------
-------------------------------------------------3-------3-----0-

OptimusPrime

Submitted by OptimusPrime at Sun 01 Dec, 2002 8:46 am

Author: ?
Composer: ?
Publisher: ?
Language: English

Reactions

CommonCrawl [Bot]

Follow Muzikum