The Beatles

The Beatles
Let It Be Ver 4 (Guitar tab)

Let it be

Verses: C, G, Am, F, C, G, F, Em, G, C.

Chorus: Am, G, F, C, C, G, F, Em, G, C.

C=E|0 G=E|3 Am=E|0 F=E|1 Em=E|0
B|1 B|3 B|1 B|1 B|0
G|0 G|0 G|2 G|2 G|0
D|2 D|0 D|2 D|3 D|2
A|3 A|2 A|0 A|3 A|2
E|x E|3 E|x E|1 E|0


Solo:(clean distortion)played with verse chords.

h=hammer
^=bend
/=slide

E|----------------------------------8--------5-----------------------|
B|-------------------------^-^--------------5-5----------------------|
G|-----------------------5-7-7-5-7/9-9-7-5-7---7-5-------------------|
D|5h7-5-----5-5-5-5~~~5-7-------------------------7-5-7-5------------|
A|-----7-5-3---7-----------------------------------------7-5/3-5-3~~~|
E|-------------------------------------------------------------------|

^^ ^^
E|-------------------------------8-10-10-8-10-8-17/15-12----------12-|
B|------------8---8---8-10~~~8h10-----------------------15-13-15-13-15|
G|---5-5-5-7/9-7/9-7/9-----------------------------------------------|
D|5/7---7------------------------------------------------------------|
A|-------------------------------------------------------------------|
E|-------------------------------------------------------------------|


E|-------------------------------------------------------------------|
B|13-15-13~~~--------------------------------------------------------|
G|-------------------------------------------------------------------|
D|-------------------------------------------------------------------|
A|-------------------------------------------------------------------|
E|-------------------------------------------------------------------|

So that's it. If you want any other song by The Beatles just e-mail
me at carlosway87@hotmail.com and i'll post it here.
Enjoy!!!

OptimusPrime

Submitted by OptimusPrime at Sun 01 Dec, 2002 8:46 am

Author: ?
Composer: ?
Publisher: ?
Language: English

Reactions

CommonCrawl [Bot]

Follow Muzikum