The Beatles

The Beatles
Dear Prudence Ver 5 (Guitar tab)

Dear Prudence
(Lennon/McCartney)

This is the real version of "Dear Prudence". The lowest string is
tuned to a D, and that the tablature refers to whatstrings should
be played.

Intro Melody

E |14-------------12-------------10-------------8-----------7-----------
B |----------12-------------10-------------10-----------8-----------8---
G |-----14-------------12-------------11------------9-----------7-------
D |---0---------0----0---------0----0---------0---0-------0---0-------0-
A |0--------------0--------------0--------------0-----------0-----------
D |--------0--------------0--------------0------------0-----------0-----

E 5-----------3-----------3------------
B --------7-----------5-----------5----
G ----7-----------5-----------4--------
D --0-------0---0-------0---0-------0--
A 0-----------0-----------0------------
D ------0-----------0-----------0------

E 2-----------2-----------2-----------2------------|
B --------3-----------3-----------3-----------3----|
G ----2-----------2-----------2-----------2--------|
D --0-------0---0-------0---0-------0---0-------0--|
A 0-----------3-----------2-----------1------------|
D ------0-----------0-----------0-----------0------|


...Dear prudence.... (repeats chord)

E |2-----------2-----------2-----------2------------
B |--------3-----------3-----------3-----------3----
G |----2-----------2-----------2-----------2--------
D |--0-------0---0-------0---0-------0---0-------0--
A |0-----------3-----------2-----------1------------
D |------0-----------0-----------0-----------0------


...Won't you come out....

E |0-----------3-----------2------------
B |--------1-----------0-----------3----
G |----0-----------0-----------2--------
D |--2-------2---0-------0---0-------0--
A |3-----------2-----------0------------
D |------0-----------0-----------0------

...Look around, around, around.... (repeat x3)
E |2-----------3-----------5-----------3------------
B |--------3-----------3-----------5-----------3----
G |----2-----------4-----------6-----------4--------
D |--0-------0---0-------0---0-------0---0-------0--
A |0-----------0-----------0-----------0------------
D |------0-----------0-----------0-----------0------


...Look around....
|1-----------4-----------3-----------2------------
B |--------1-----------4-----------3-----------3----
G |----2-----------5-----------4-----------2--------
D |--0-------0---0-------0---0-------0---0-------0--
A |0-----------0-----------0-----------0------------
D |------0-----------0-----------0-----------0------


Fade Out

E |14-------------12-------------10-------------8-----------7-----------
B |----------12-------------10-------------10-----------8-----------8---
G |-----14-------------12-------------11------------9-----------7-------
D |---0---------0----0---------0----0---------0---0-------0---0-------0-
A |0--------------0--------------0--------------0-----------0-----------
D |--------0--------------0--------------0------------0-----------0-----

E 5-----------3-----------3-----------2-|
B --------7-----------5-----------5---3-|
G ----7-----------5-----------4-------2-|
D --0-------0---0-------0---0-------0-0-|
A 0-----------0-----------0-----------0-|
D ------0-----------0-----------0-----0-|


2002 by Havy Alegr´┐Ża.

OptimusPrime

Submitted by OptimusPrime at Sun 01 Dec, 2002 8:46 am

Author: ?
Composer: ?
Publisher: ?
Language: English

Reactions

CommonCrawl [Bot]

Follow Muzikum