The Beatles

The Beatles
Dont Let Me Down (Guitar tab)

Don't let me down - The Beatles

Intro and fill at end of Chorus lines

E-------------------------------
B--------------------------------
G--------------------------------
D-----------9-9h11-9-------------
A---7---9h11---------9-12-11-11--
E---0------------------------0---

Thats the start bit, and when the verse comes in, you can hear George
doing a fill its like this.it comes in after John sings "nobody ever loved me like she does".

E--14p12-12-12/9-9-9-9/7-7-7/5-5-5-4----4---4--
B--14p12-12-12/9-9-9-9/7-7-7/5-5-5-4-4h5-5h7-5-

then, the second verse goes like this

A-------------------------------------12-9-11p9\7-9p7\6-7p6\4-6p4
E-0-12-11-12-9-12-7-12-4-0-2-0-7-14-11---------------------------

A-----------12-9-11p9\7-9p7\6-7p6\4-6p4--------
E--7-14-11-------------------------------------

then repeat intro.

OptimusPrime

Submitted by OptimusPrime at Sun 01 Dec, 2002 8:46 am

Author: ?
Composer: ?
Publisher: ?
Language: English

Reactions

CommonCrawl [Bot]

Follow Muzikum