The Beatles

The Beatles
Youve Got To Hide Your Love Away (Guitar tab)

#research. Remember to view this file in Courier, or other monospaced font. #
#See http://www.olga.net/faq/ for more information. #


Subject: b/beatles/youve_got_to_hide_your_love_away.tab

YOU'VE GOT TO HIDE YOUR LOVE AWAY
=================================

Words and music by John Lennon and Paul McCartney. Published by Northern
Songs. Submitted by Jeroen Janssen.
You've Got To Hide Your Love Away appeared on the Help! released in 1965. It
was the first Beatles song with a musician other than the Fab Four playing on
it. It was mainly written by John.


USED CHORDS
===========

G Dsus4 Fadd9 C D D* D/C D/B D/A C*
E -2--| ----| ----| ----| ----| ----| ----| ----| ----| ----|
B --1-| ----| ----| -3--| ----| ----| -3--| --1-| ----| -3--|
G ----| ----| -3--| --2-| ----| ----| ----| ----| ----| --2-|
D ----| --1-| --2-| ---1| --1-| --1-| --1-| --2-| --2-| ----|
A -3--| -3--| ---1| ----| -3--| -4--| -4--| -4--| -4--| ---1|
E -4--| -4--| -4--| -4--| --2-| --2-| --2-| --3-| --3-| ----|

Dsus4* Dsus2
E ----| ----| P.S.: The alternate fingerings show (C* and D*) facili-
B ----| ----| tate playing this song, but the normal fingerings
G ----| ----| work as well.
D --1-| --1-|
A -3--| -3--|
E -42-| ----|

Explanation: For example the G-chord is played like this: the first finger
on the B-string at the 2nd fret, the second finger on the E-string at the
third fret, the third finger on the A-string at the third fret and the
fourth finger on the E-string at the fourth fret.


INTRO
=====
G
E------3-3-3-3-------------|
B--2---3-3-3-3-----3-3-3-3-|
G--0---0---0-------0-0-0-0-|
D--0-----------------------|
A--2-----------2-----------|
E--3-----------3-----------|

1st VERSE
=========
G Dsus4 Fadd9 G C
E-----3-3-3-3-----3-3-3---|-----3-3-3-3-----3-3-3---|-----3-3-3-3-----3-3-3-3-|
B-----3-3-3-3-----3-3-3-0-|-----1-1-1-1-----3-3-3-0-|-----1-1-1-1-----1-1-1-1-|
G-----0---0---2---------0-|-2---------------0---0-0-|-----0---0-------0---0---|
D-------------0-----------|-3-----------------------|-2-----------0h2---------|
A-2-----------------------|-------------2-----------|-3-----------3-----------|
E-3-----------------------|-------------3-----------|-------------------------|
Here I stand head hand turn my face the
in to wall

Fadd9 C G Dsus4 Fadd9 G
E-----3-3-3-3-----3-3-3-3-|-----3-3-3-3-----3-3-3-3-|-----3-3-3-3-----3-3-3-3-|
B-----1-1-1-1-----1-1-1-1-|-----3-3-3-3-----3-3-3-3-|-----1-1-1-1-----3-3-3-3-|
G-2---------------0---0---|-----0---0---2-----------|-2---------------0---0-3-|
D-3-----------2-----------|-------------0-----------|-3-----------------------|
A-------------3-----------|-2-----------------------|-------------2-----------|
E-------------------------|-3-----------------------|-------------3-----------|
If she's I can't go on
gone

C Fadd9 C/E D
E-----3-3-3-3-----3-3-3-3-|-----3-3-3-3-----3-3-3---|-----2-2-2-2-----2-2-----|
B-----1-1-1-1-----1-1-1-1-|-----1-1-1-1-----1-1-1---|-----3-3-3-3-----3-------|
G-----0---0-------0---0---|-2-------------------0---|-2---2---2---2h2-----2---|
D-2-----------0h2---------|-3-----------2-----------|-0-----------0-----------|
A-3-----------3-----------|-------------------------|-------------------------|
E-------------------------|-------------------------|-------------------------|
fee-ling two foot small

G Dsus4 Fadd9 G C
E-----3-3-3-------3-3-3-3-|-----3-3-3-3-----3-3-3-3-|-----3-3-3-------3-3-3---|
B-----3-3-3-------3---3---|-----1---1-------3-3-3-3-|-----1-1-1-------1-1-1---|
G-----0---0---2-----------|-2---------------0---0---|-----0---0-------0-------|
D-------------0-----------|-3-----------------------|-2-----------0h2---------|
A-2-----------------------|-------------2-----------|-3-----------3-----------|
E-3-----------------------|-------------3-----------|-------------------------|
Ev ry' where peo-ple stare each and ev- ry'
day

Fadd9 C G Dsus4 Fadd9 G
E-----3-3-3-3-----3-3-----|-----3-3-3-3-----3-3-3-3-|-----3-3-3-3-----3-3-3---|
B-----1-1-1-1-----1-1-----|-----3-3-3-3-----3-3-3-3-|-----1-1-1-1-----3-3-3-3-|
G-2---------------0---0---|-----0---0---2-----------|-2---------------0-----0-|
D-3-----------2-------0---|-------------0-----------|-3-----------------------|
A-------------3-----------|-2-----------------------|-------------2-----------|
E-------------------------|-3-----------------------|-------------3-----------|
I can see them laugh at me

C Fadd9 C
E-----3-3-3-3-----3-3-3-3-|-----3-3-3-3-----3-3-3---|
B-----1-1-1-1-----1-1-1-1-|-----1-1-1-1-----1-1-1---|
G-----0---0-------0---0---|-2---------------0-----0-|
D-2-----------0h2---------|-3-----------2---------0-|
A-3-----------3-----------|-------------3-----------|
E-------------------------|-------------------------|
and I hear them say

BRIDGE
======
D* D/C D/B D/A
E-----2-2-2-2-----2-2-2-2-|-----2-2-2-2----(2)------|
B-----3-3-3-3-----3-3-3-3-|-----3-3-3-3----(3)--0---|
G-2---------------2-------|-----2----------(2)--0---|
D-0-----------------------|-----------------0---0---|
A-------------3-----------|-2-----------0---0-------|
E-------------------------|-------------------------|

CHORUS
======
G C* Dsus4* D
E-----3-3-3-3-------------|-------------------------|-----3-3-3-3-----2-2-2-2-|
B-2---3-3-3-3-------------|-1---1-1-1-1-----1---1---|-3---3-3-3-3-2---3-3-3-3-|
G-0---0---0---------------|-0---0-0-0-0-----0---0---|-2---2---2---3---2---2---|
D-0---------------0-------|-2---2---2---2---2---2---|-0-----------0-----------|
A-2-----------2---0---2---|-3-----------3-----------|-------------------------|
E-3-----------3-----------|-------------------------|-------------------------|
Hey! You've hide your love way
got to a-

Dsus2 D
E-0---0-0-0-0-2---2-2-----|
B-2---3-3-3-3-3---3-3-0---|
G-3---2---2---2---2---0---|
D-0-----------0-----------|
A-------------------------|
E-------------------------|

G C* Dsus4* D
E-----3-3-3-3-------------|-----0-0-0-0---------0---|-----3-3-3-3-----2-2-2-2-|
B-2---3-3-3-3-------------|-1---1-1-1-1-1-------1---|-3---3-3-3-3-2---3-3-3-3-|
G-0---0---0---------------|-0---0---0---0-------0---|-2---2---2---3---2---2---|
D-0-----------------------|-2-----------2---2-------|-0-----------0-----------|
A-2-----------2---0---2---|-3-----------3---3-------|-------------------------|
E-3-----------3-----------|-------------------------|-------------------------|
Hey! You've hide your love way
got to a-

Dsus2 D
E-0---0-0-0-0-2---2-2-----|
B-2---3-3-3-3-3---3-3-0---|
G-3---2---2---2---2---0---|
D-0-----------0-----------|
A-------------------------|
E-------------------------|

2nd VERSE (the same as verse 1, but with these lyrics)
=========
How can I even try, I can never win
Hearing them, seeing them, in the state I'm in
How could she say to me, love will find a way
Gather round all you clowns, let me hear you say

CHORUS
======
Play chorus again

OUTRO
=====
G Dsus4 Fadd9 G C
E-----3-3-3-3-----3-3-3-3-|-----3-3-3-3-----3-3-3---|-----3-3-3-3------3-3----|
B-2---3-3-3-3-----3-3-3-3-|-----1-1-1-1-----3-3-3---|-1---1-1-1-1------1-1-1--|
G-0---0---0---2-----------|-2---------------0-------|-0---0---0--------0---0--|
D-0-----------0-----------|-3-----------0-----------|-2------------0h2--------|
A-2-----------------------|-------------2-----------|-3------------3----------|
E-3-----------------------|-------------3-----------|-------------------------|

Fadd9 C
E-----3-3-3-3-----3-3-----|
B-----1-1-1-1-----1-1-0---|
G-2---------------0---0---|
D-3-----------2-----------|
A-------------3-----------|
E-------------------------|

G Dsus4 Fadd9 G C
E-----3-3-3-3-----3-3-3-3-|-3---3-3---------3-3-3---|-----3-3-3-3-------------|
B-2---3-3-3-3-----3-3-3-3-|-1---1-1-0-------3-3-3-0-|-1---1-1-1-1--1----1-1-1-|
G-0---0---0---2-----------|-2-------0-------0-----0-|-0---0---0----0----0---0-|
D-0-----------0-----------|-3-----------0-----------|-2------------0h-2-------|
A-2-----------------------|-------------2-----------|-3------------3----------|
E-3-----------------------|-------------3-----------|-------------------------|

Fadd9 C G
E-----3-3-3-3-----3-3-3---|-3-----------------------|
B-----1-1-1-1-----1-1-1---|-3-----------------------|
G-2-----------0-----------|-0-----------------------|
D-3-----------2-----------|-0-----------------------|
A-------------3-----------|-2-----------------------|
E-------------------------|-3-----------------------|


------------------------------------------------------------------------------
| Have fun playing this great song! |
------------------------------------------------------------------------------

OptimusPrime

Submitted by OptimusPrime at Sun 01 Dec, 2002 8:45 am

Author: ?
Composer: ?
Publisher: ?
Language: English

Reactions

CommonCrawl [Bot]

Follow Muzikum