The Beatles

The Beatles
Birthday (Guitar tab)

#research. Remember to view this file in Courier, or other monospaced font. #
#See http://www.olga.net/faq/ for more information. #


Subject: b/beatles/birthday.tab

Beatles
"White Album"
Correct TAb For "Birthday"
Transcribed by Brian Blacwell


After looking and trying out the other tabs for this classic Beatles song I decided to submit the correct way to play this great song!

These are the correct Riffs for Birthday including the "Solo"

E----------3-2-0--|
B------2-5--------|
G--2-2----------2-|
D-----------------|
A-----------------|
E-----------------|


E----------8-7------|
B-----7-10-----10---|
G-7-7-------------7-|
D-------------------|
A-------------------|
E-------------------|


E----------10-9------|
B-----9-12------12---|
G-9-9--------------9-|
D--------------------|
A--------------------|
E--------------------|


E-5-0-3-5-3-0-----------------5-8-12-8-10-7-5-3-|
B-------------3-1---------2-5-------------------|
G-----------------2-0---2-----------------------|
D-----------------------------------------------|
A-----------------------------------------------|
E-----------------------------------------------|

From what my friend and I could tell the chords are in the key of E, C, and G for the "Chorus" Just listen to it, and put it all together. Any problems or questions Email me at BACWELL2@AOL.COM

OptimusPrime

Submitted by OptimusPrime at Sun 01 Dec, 2002 8:44 am

Author: ?
Composer: ?
Publisher: ?
Language: English

Reactions

CommonCrawl [Bot]

Follow Muzikum