The Beatles

The Beatles
Yesterday Ver 2 (Guitar tab)

#

drricky40@yahoo.com




Yesterday
John Lennon & Paul McCartney

The Beatles
Help!
1965
An easy tab that sounds like the song and is not to hard to play
Paul actually tunes down a full step and play in the key of G for
this, so if you want to do that it'll sound more like the
real thing.




E|---------------------0---0-1-0-----------------------------1-1----------|
B|-------------------0-2-3-----3-3-3-------3-3-1---------3---1-1----------|
G|---0-------------2---0-------2-------3-------0-3-2-0---3---2-2----------|
D|---3-3-3---3---2-----2-------0-------3-------2---------3---3-3----------|
A|---3-------3---2-----0-------------3-1-------3---------1---3-3----------|
E|---1-------1---0-------------------------------------------1-1----------|



E|-------1---3-----1-1----------------------------------------------------|
B|-------3---0---3-1-1----------------------------------------------------|
G|---0---2-2-0---3-2-2----------------------------------------------------|
D|-------3---0-0-3-3-3----------------------------------------------------|
A|-----------2---1-3-3----------------------------------------------------|
E|-----------3-----1-1----------------------------------------------------|



INTRO:

F


F Em A7 Dm
Yesterday all my troubles seemed so far away
Dm/C Bb C Bb F
Now it looks as though they're here to stay
Dm G Bb F
Oh I believe in yesterday

Bb x1333x
Dm/C x30231
------------------------------------------------------------------------

Suddenly I'm not half the man I used to be
There's a shadow hanging over me
Oh yesterday came suddenly



BRIDGE
Em A7 Dm C Bb C Bb F
Why she had to go I don't know she wouldn't say
Em A7 Dm C Bb C Bb F
I said something wrong now I long for yesterday



Em A7 Dm C Bb C F
E|---------------------1---0---0------------------------------------------|
B|---------------------3-----3-1-3-1-3------------------------------------|
G|---------------------3-------0------------------------------------------|
D|---------------------3-------2------------------------------------------|
A|---------------------1-------3------------------------------------------|
E|------------------------------------------------------------------------|



Em A7 Dm C Bb C F Fsus4 F
E|---------------------1---0---0-----0-1----------------------------------|
B|---------------------3-----3-1-3-1---1---1------------------------------|
G|---------------------3-------0-------2---2---3-------2------------------|
D|---------------------3-------2-------3---3---3-------3------------------|
A|---------------------1-------3-------3---3---3-------3------------------|
E|-------------------------------------1---1---1-------1------------------|

------------------------------------------------------------------------

Yesterday love was such an easy game to play
Now I need a place to hide away
Oh I believe in yesterday


------------------------------------------------------------------------

Why she had to go I don't know she wouldn't say
I said something wrong now I long for yesterday


------------------------------------------------------------------------

Yesterday love was such an easy game to play
Now I need a place to hide away
Oh I believe in yesterday

Dm G Bb F



------------------------------------------------------------------------
CHORDS:
------------------------------------------------------------------------

A7 x02020
C x32010 or x35553
Bb x13331
Dm xx0231
Dm/C x3x231
Em 022100
F 133211
G 320003

OptimusPrime

Submitted by OptimusPrime at Sun 01 Dec, 2002 8:44 am

Author: ?
Composer: ?
Publisher: ?
Language: English

Reactions

CommonCrawl [Bot]

Follow Muzikum