The Beatles

The Beatles
Michelle (Bass tab)

Date: Thu, 28 Mar 2002 10:21:47 +0200
From: "Jan Bjorklund"
Subject: b/beatles/michelle.btab

Beatles_ Michelle

TablEdited by Jan Bjorklund, Finland
You are welcome to request for tabs!
Fingering and positions as suggested by TablEdit, please use common sense!


TablEdited by Jan Bjorklund
Tuning : E A D G Time Signature: 4/4

| | | |
|------------------------------------------------9---------------|
|10--------------------------------------------------------------|
|----------------------------------------------------------------|
|----------------------------------------------------------------|

| | | |
|10--------------------------------------------------------------|
|------------------------------------------------10--------------|
|----------------------------------------------------------------|
|----------------------------------------------------------------|

| | | |
|----------------------------------------------------------------|
|3---------------------------------------------------------------|
|----------------------------------------------------------------|
|----------------------------------------------------------------|

| | | |
|5---------------------------------------------------------------|
|----------------------------------------------------------------|
|----------------------------------------------------------------|
|----------------------------------------------------------------|

| | | |
|--------------------------------5-------------------------2-----|
|3---------------------------------------------------------------|
|----------------------------------------------------------------|
|----------------------------------------------------------------|

| | | |
|3---------------------------------------------------------------|
|--------------------------------3-------------------------------|
|----------------------------------------------------------------|
|----------------------------------------------------------------|

| | | |
|--------------------------------3-------------------------------|
|1---------------------------------------------------------------|
|----------------------------------------------------------------|
|----------------------------------------------------------------|

| | | |
|----------------------------------------------------------------|
|0---------------------------------------------------------------|
|--------------------------------2-------------------------------|
|----------------------------------------------------------------|

| | | |
|----------------------------------------------------------------|
|----------------------------------------------------------------|
|3-------------------------------2-------------------------------|
|----------------------------------------------------------------|

| | | |
|----------------------------------------------------------------|
|--------------------------------0---------------2---------------|
|3---------------------------------------------------------------|
|----------------------------------------------------------------|

| | | |
|----------------------------------------------------------------|
|3---------------------------------------------------------------|
|--------------------------------3-------------------------0-----|
|----------------------------------------------------------------|

| | | |
|----------------------------------------------------------------|
|--------------------------------3-------------------------------|
|1---------------------------------------------------------------|
|----------------------------------------------------------------|

| | | |
|----------------------------------------------------------------|
|3-----------------------------------------1---------------------|
|--------------------------------3-------------------------------|
|----------------------------------------------------------------|

| | | |
|----------------------------------------------------------------|
|3-----------------------------------------1---------------------|
|--------------------------------3-------------------------------|
|----------------------------------------------------------------|

| | | |
|1---------------------------------------------------------------|
|----------------4---------------3---------------1---------------|
|----------------------------------------------------------------|
|----------------------------------------------------------------|

| | | |
|----------------------------------------------------------------|
|----------------1---------------3-------------------------------|
|4-----------------------------------------------4---------------|
|----------------------------------------------------------------|

| | | |
|----------------------------------------------------------------|
|----------------0---------------2-------------------------------|
|3-----------------------------------------------3---------------|
|----------------------------------------------------------------|

| | | |
|----------------0---------------1---------------3---------------|
|3---------------------------------------------------------------|
|----------------------------------------------------------------|
|----------------------------------------------------------------|

| | | |
|5-------------------------------5-------------------------------|
|----------------------------------------------------------------|
|----------------------------------------------------------------|
|----------------------------------------------------------------|

| | | |
|--------------------------------5-------------------------2-----|
|3---------------------------------------------------------------|
|----------------------------------------------------------------|
|----------------------------------------------------------------|

| | | |
|3---------------------------------------------------------------|
|--------------------------------3-------------------------0-----|
|----------------------------------------------------------------|
|----------------------------------------------------------------|

| | | |
|--------------------------------3-------------------------------|
|1---------------------------------------------------------------|
|----------------------------------------------------------------|
|----------------------------------------------------------------|

| | | |
|----------------------------------------------------------------|
|0---------------------------------------------------------------|
|--------------------------------2---------2---------------------|
|----------------------------------------------------------------|

| | | |
|----------------------------------------------------------------|
|----------------------------------------------------------------|
|3-------------------------------2---------2---------------------|
|----------------------------------------------------------------|

| | | |
|----------------------------------------------------------------|
|----------------------------------------------------------------|
|3-------------------------------3---------3---------------------|
|----------------------------------------------------------------|

| | | |
|------------------------------------------------9---------------|
|----------------------------------------------------------------|
|----------------------------------------------------------------|
|----------------------------------------------------------------|

| | | |
|------------------------------------------------5---------------|
|----------------------------------------------------------------|
|----------------------------------------------------------------|
|----------------------------------------------------------------|

| | | |
|----------------------------------------------------------------|
|3---------------------------------------------------------------|
|----------------------------------------------------------------|
|----------------------------------------------------------------|

| | | |
|----------------------------------------------------------------|
|----------------------------------------------------------------|
|----------------------------------------------------------------|
|----------------------------------------------------------------|

| | | |
|----------------------------------------------------------2-----|
|3---------------------------------------------------------------|
|--------------------------------3-------------------------------|
|----------------------------------------------------------------|

| | | |
|----------------------------------------------------------2-----|
|3---------------------------------------------------------------|
|--------------------------------3-------------------------------|
|----------------------------------------------------------------|

| | | |
|----------------------------------------------------------2-----|
|3---------------------------------------------------------------|
|--------------------------------3-------------------------------|
|----------------------------------------------------------------|

| | | |
|----------------------------------------------------------2-----|
|3---------------------------------------------------------------|
|--------------------------------3-------------------------------|
|----------------------------------------------------------------|




Created with TablEdit http://www.tabledit.com/

OptimusPrime

Submitted by OptimusPrime at Sun 26 May, 2002 6:46 pm

Author: ?
Composer: ?
Publisher: ?
Language: English

Reactions

CommonCrawl [Bot]

Follow Muzikum