The Beatles

The Beatles
When I'm Sixty-Four (Bass Tab)

Date: Thu, 28 Mar 2002 10:24:22 +0200
From: "Jan Bjorklund"
Subject: b/beatles/when_im_64.btab

beatles_when i'm 64

TablEdited by Jan Bjorklund, Finland
You are welcome to request for tabs!
Fingering and positions as suggested by TablEdit, please use common sense!


TablEdited by Jan Bjorklund
Tuning : E A D G Time Signature: 4/4

| | | | | | | |
|--------------------------------|--------------------------------|
|--------------------------------|--------------------------------|
|4-------------------------------|4-------------------------------|
|----------------4---------------|----------------4---------------|

| | | | | | | |
|--------------------------------|--------------------------------|
|--------------------------------|--------------------------------|
|--------------------------------|4---------------4---------------|
|2---------------4---------------|--------4-----------------------|

| | | | | | | |
|--------------------------------|--------------------------------|
|--------------------------------|--------------------------------|
|4-------------------------------|4-------------------------------|
|----------------4---------------|----------------4---------------|

| | | | | | | |
|--------------------------------|--------------------------------|
|--------------------------------|----------------1---------------|
|4-------------------------------|--------------------------------|
|----------------4---------------|4-------------------------------|

| | | | | | | |
|--------------------------------|--------------------------------|
|----------------1---------------|----------------1---------------|
|--------------------------------|--------------------------------|
|4-------------------------------|4-------------------------------|

| | | | | | | |
|--------------------------------|--------------------------------|
|--------------------------------|--------------------------------|
|--------1-------2-------3-------|4-------------------------------|
|4-------------------------------|--------------------------------|

| | | | | | | |
|--------------------------------|--------------------------------|
|--------------------------------|--------------------------------|
|----------------4---------------|----------------0---------------|
|2-------------------------------|2-------------------------------|

| | | | | | | |
|--------------------------------|--------------------------------|
|--------------------------------|1-------------------------------|
|----------------1---------------|--------------------------------|
|4-------------------------------|----------------4---------------|

| | | | | | | |
|--------------------------------|--------------------------------|
|------------------------3-------|--------------------------------|
|4---------------4---4-----4-----|1-------1-------1-------1-------|
|--------4---------4---------4---|--------------------------------|

| | | | | | | |
|--------------------------------|--------------------------------|
|--------------------------------|--------------------------------|
|1-------1-------1-------1-------|--------------------------------|
|--------------------------------|4-------4-------4-------4-------|

| | | | | | | |
|--------------------------------|--------------------------------|
|--------------------------------|--------------------------------|
|1-------1-------1-------1-------|--------------------------------|
|----------------------------1---|1-------------------------------|

| | | | | | | |
|--------------------------------|--------------------------------|
|--------------------------------|--------------------------------|
|--------------------------------|1-------1-------1-------1-------|
|--------------------------------|----------------------------1---|

| | | | | | | |
|--------------------------------|--------------------------------|
|--------------------------------|1-------1-------1-------1-------|
|1-------1-------1-------1-------|--------------------------------|
|--------------------------------|--------------------------------|

| | | | | | | |
|--------------------------------|--------------------------------|
|1-------1-------1---------------|--------------------------------|
|--------------------------------|--------------------------------|
|------------------------1-------|2-------2-------2-------2-------|

| | | | | | | |
|--------------------------------|--------------------------------|
|--------------------------------|--------------------------------|
|--------------------------------|4-------4-------4-------4-------|
|4-------4-------4-------4-------|--------------------------------|

| | | | | | | |
|--------------------------------|--------------------------------|
|--------------------------------|----------------1---------------|
|--------------------------------|--------------------------------|
|4---------------4-------4-------|--------4-----------------------|

| | | |
|--------------------------------|
|--------------------------------|
|4---------------4---------------|
|--------4-----------------------|


Created with TablEdit http://www.tabledit.com/

OptimusPrime

Submitted by OptimusPrime at Sun 26 May, 2002 6:46 pm

Frank Potters

Last updated by Frank Potters at Sat 15 Jul, 2017 12:52 pm

Author: ?
Composer: ?
Publisher: ?
Language: English

Reactions

CommonCrawl [Bot]

Follow Muzikum