The Beatles

The Beatles
Ticket To Ride (Bass tab)

Date: Tue, 09 Apr 2002 15:13:54 +0300
From: "Jan Bjorklund"
Subject: b/beatles/ticket_to_ride.btab

Beatles_Ticket to Ride

Basstab by Jan Bjorklund, Finland
You are welcome to request for basstabs!
Fingering and positions as suggested by TablEdit, please use common sense!

TablEdited by Jan Bjorklund for Jim
Tuning : E A D G Time Signature: 4/4

| | | | | | | |
|--------------------------------|--------------------------------|
|--------------------------------|--------------------------------|
|0-----------0-------------------|0-----------0-------------------|
|--------------------------------|--------------------------------|

| | | | | | | |
|--------------------------------|--------------------------------|
|--------------------------------|--------------------------------|
|0-----------0-------------------|0-----------0-------------------|
|--------------------------------|--------------------------------|

| | | | | | | |
|--------------------------------|--------------------------------|
|--------------------------------|--------------------------------|
|0-----------0-------------------|0-----------0-------------------|
|--------------------------------|--------------------------------|

| | | | | | | |
|--------------------------------|--------------------------------|
|--------------------------------|--------------------------------|
|0-----------0-------------------|0-----------0-------------------|
|--------------------------------|--------------------------------|

| | | | | | | |
|--------------------------------|--------------------------------|
|--------------------------------|--------------------------------|
|2-----------2-------------------|--------------------------------|
|--------------------------------|0-----------0-------------------|

| | | | | | | |
|--------------------------------|--------------------------------|
|4-----------4-------------------|0-----------0-------------------|
|--------------------------------|--------------------------------|
|--------------------------------|--------------------------------|

| | | | | | | |
|--------------------------------|0-------------------------------|
|4-----------4-------------------|--------------------------------|
|--------------------------------|--------------------------------|
|--------------------------------|--------------------------------|

| | | | | | | |
|--------------------------------|--------------------------------|
|4-----------4-------------------|2-----------2-------------------|
|--------------------------------|--------------------------------|
|--------------------------------|--------------------------------|

| | | | | | | |
|--------------------------------|--------------------------------|
|--------------------------------|--------------------------------|
|0-----------0-------------------|0-----------0-------------------|
|--------------------------------|--------------------------------|

| | | | | | | |
|--------------------------------|--------------------------------|
|--------------------------------|--------------------------------|
|0-----------0-------------------|0-----------0-------------------|
|--------------------------------|--------------------------------|

| | | | | | | |
|--------------------------------|--------------------------------|
|--------------------------------|--------------------------------|
|0-----------0-------------------|0-----------0-------------------|
|--------------------------------|--------------------------------|

| | | | | | | |
|--------------------------------|--------------------------------|
|--------------------------------|--------------------------------|
|0-----------0-------------------|0-----------0-------------------|
|--------------------------------|--------------------------------|

| | | | | | | |
|--------------------------------|--------------------------------|
|--------------------------------|--------------------------------|
|2-----------2-------------------|--------------------------------|
|--------------------------------|0-----------0-------------------|

| | | | | | | |
|--------------------------------|--------------------------------|
|4-----------4-------4-----------|0-----------0-------0-----------|
|----------------4---------------|----------------0---------------|
|--------------------------------|--------------------------------|

| | | | | | | |
|--------------------------------|0-------------------------------|
|4-----------4---------------4---|--------------------------------|
|----------------4---------------|--------------------------------|
|--------------------------------|--------------------------------|

| | | | | | | |
|--------------------------------|--------------------------------|
|4-----------4-------4-----------|2-----------------------2-------|
|----------------4---------------|----------------2---2-------2---|
|--------------------------------|--------------------------------|

| | | | | | | |
|--------------------------------|--------------------------------|
|--------------------------------|----------------2---------------|
|0-----------0-------------------|0-----------0-----------0-------|
|--------------------------------|--------------------------------|

| | | | | | | |
|--------------------------------|--------------------------------|
|0-------0-----------------------|0-------0-----------------------|
|----------------0---0---0---3---|----------------0---0---0---3---|
|--------------------------------|--------------------------------|

| | | | | | | |
|--------------------------------|--------------------------------|
|0-------0-------------------0---|2-------2---------------2-------|
|----------------0---0---0-------|----------------2---2-------2---|
|--------------------------------|--------------------------------|

| | | | | | | |
|--------------------------------|--------------------------------|
|0-------0-----------------------|0-------0-----------------------|
|----------------0---0---0---3---|----------------0---0---0---3---|
|--------------------------------|--------------------------------|

| | | | | | | |
|--------------------------------|--------------------------------|
|0-------0-------------------0---|2-------------------------------|
|----------------0---0---0-------|--------------------------------|
|--------------------------------|--------------------------------|

| | | | | | | |
|--------------------------------|--------------------------------|
|--------------------------------|--------------------------------|
|--------------------------------|0---------------0---0-----------|
|--------------------------------|--------------------------------|

| | | | | | | |
|--------------------------------|--------------------------------|
|--------------------------------|--------------------------------|
|0---------------0---0-----------|0---------------0---0-----------|
|--------------------------------|--------------------------------|

| | | | | | | |
|--------------------------------|--------------------------------|
|--------------------------------|--------------------------------|
|0---------------0---0-----------|0---------------0---0-----------|
|--------------------------------|--------------------------------|

| | | | | | | |
|--------------------------------|--------------------------------|
|--------------------------------|--------------------------------|
|0---------------0---0-----------|2-----------2-------------------|
|--------------------------------|--------------------------------|

| | | | | | | |
|--------------------------------|--------------------------------|
|--------------------------------|4-----------4-------4-----------|
|--------------------------------|----------------4---------------|
|0-----------0-------------------|--------------------------------|

| | | | | | | |
|--------------------------------|--------------------------------|
|0-----------0-------0-----------|4-----------4---------------4---|
|----------------0---------------|----------------4---------------|
|--------------------------------|--------------------------------|

| | | | | | | |
|0-------------------------------|--------------------------------|
|--------------------------------|4-----------4-------4-----------|
|--------------------------------|----------------4---------------|
|--------------------------------|--------------------------------|

| | | | | | | |
|--------------------------------|--------------------------------|
|2-----------------------2-------|----------------0---------------|
|----------------2---2-------2---|0-----------0-------------------|
|--------------------------------|--------------------------------|

| | | | | | | |
|--------------------------------|--------------------------------|
|----------------2---------------|0-------0-----------------------|
|0-----------0-----------0-------|----------------0---0---0---3---|
|--------------------------------|--------------------------------|

| | | | | | | |
|--------------------------------|--------------------------------|
|0-------0-----------------------|0-------0-------------------0---|
|----------------0---0---0---3---|----------------0---0---0-------|
|--------------------------------|--------------------------------|

| | | | | | | |
|--------------------------------|--------------------------------|
|2-------2---------------2-------|0-------0-----------------------|
|----------------2---2-------2---|----------------0---0---0---3---|
|--------------------------------|--------------------------------|

| | | | | | | |
|--------------------------------|--------------------------------|
|0-------0-----------------------|0-------0-------------------0---|
|----------------0---0---0---3---|----------------0---0---0-------|
|--------------------------------|--------------------------------|

| | | | | | | |
|--------------------------------|--------------------------------|
|2-------------------------------|--------------------------------|
|--------------------------------|--------------------------------|
|--------------------------------|--------------------------------|

| | | | | | | |
|--------------------------------|--------------------------------|
|--------------------------------|--------------------------------|
|0-----------0-------------------|0-----------0-------------------|
|--------------------------------|--------------------------------|

| | | | | | | |
|--------------------------------|--------------------------------|
|--------------------------------|--------------------------------|
|0-----------0-------------------|0-----------0-------------------|
|--------------------------------|--------------------------------|

| | | | | | | |
|--------------------------------|--------------------------------|
|--------------------------------|--------------------------------|
|0-----------0-------------------|0-----------0-------------------|
|--------------------------------|--------------------------------|

| | | | | | | |
|--------------------------------|--------------------------------|
|--------------------------------|--------------------------------|
|2-----------2-------------------|--------------------------------|
|--------------------------------|0-----------0-------------------|

| | | | | | | |
|--------------------------------|--------------------------------|
|4-----------4-------------------|0-----------0-------------------|
|--------------------------------|--------------------------------|
|--------------------------------|--------------------------------|

| | | | | | | |
|--------------------------------|0-------------------------------|
|4-----------4-------------------|--------------------------------|
|--------------------------------|--------------------------------|
|--------------------------------|--------------------------------|

| | | | | | | |
|--------------------------------|--------------------------------|
|4-----------4-------------------|2-----------2-------------------|
|--------------------------------|--------------------------------|
|--------------------------------|--------------------------------|

| | | | | | | |
|--------------------------------|--------------------------------|
|--------------------------------|--------------------------------|
|0-----------0-------------------|0-------------------------------|
|--------------------------------|--------------------------------|

| | | | | | | |
|--------------------------------|--------------------------------|
|--------2---------------2-------|--------2---------------2-------|
|0---------------0---------------|0---------------0---------------|
|--------------------------------|--------------------------------|

| | | | | | | |
|--------------------------------|--------------------------------|
|--------2---------------2-------|--------2---------------2-------|
|0---------------0---------------|0---------------0---------------|
|--------------------------------|--------------------------------|

| | | | | | | |
|--------------------------------|--------------------------------|
|--------2---------------2-------|--------2---------------2-------|
|0---------------0---------------|0---------------0---------------|
|--------------------------------|--------------------------------|

| | | | | | | |
|--------------------------------|--------------------------------|
|--------2---------------2-------|--------2---------------2-------|
|0---------------0---------------|0---------------0---------------|
|--------------------------------|--------------------------------|

| | | | | | | |
|--------------------------------|--------------------------------|
|--------2---------------2-------|--------2---------------2-------|
|0---------------0---------------|0---------------0---------------|
|--------------------------------|--------------------------------|

| | | | | | | |
|--------------------------------|--------------------------------|
|--------2---------------2-------|--------2---------------2-------|
|0---------------0---------------|0---------------0---------------|
|--------------------------------|--------------------------------|

| | | | | | | |
|--------------------------------|--------------------------------|
|--------2---------------2-------|--------2---------------2-------|
|0---------------0---------------|0---------------0---------------|
|--------------------------------|--------------------------------|

| | | |
|--------------------------------|
|--------2---------------2-------|
|0---------------0---------------|
|--------------------------------|


Created with TablEdit http://www.tabledit.com/

OptimusPrime

Submitted by OptimusPrime at Sun 26 May, 2002 6:46 pm

Author: ?
Composer: ?
Publisher: ?
Language: English

Reactions

CommonCrawl [Bot]

Follow Muzikum