The Beatles

The Beatles
The Night Before (Bass tab)

Date: Thu, 11 Apr 2002 21:47:30 +0200 (CEST)
From: =?iso-8859-1?q?Jan=20Bj=F6rklund?=
Subject: b/beatles/the_night_before.btab

Beatles_The Night Before

Basstab by Jan Bjorklund, Finland

You are welcome to request for basstabs!
Fingering and positions as suggested by TablEdit,
please use common sense!

TablEdited by Jan Bjorklund for Jim
Tuning : E A D G Time Signature: 4/4


|----|------|--------|--------|--------|0-0-----|0-0---1-|
|----|0-----|0-0---2-|3-3---2-|3-3---4-|----0-4-|----0---|
|--4-|--0-4-|----0---|----3---|----3---|--------|--------|
|----|------|--------|--------|--------|--------|--------|

|2-2---1-|2-2---|------|------|------|------|------|------|
|----2---|----2-|0-0---|------|----0-|----2-|0-0---|------|
|--------|------|----0-|3-3---|------|0-0---|----0-|3-3---|
|--------|------|------|----3-|3-3---|------|------|----3-|

|------|------|------|------|------|------|------|------|
|----0-|----2-|------|----0-|------|----0-|0-0---|----0-|
|------|0-0---|2-2---|------|2-2---|------|----0-|------|
|3-3---|------|----2-|3-3---|----2-|3-3---|------|3-3---|

|------|----0-|------|------|------|------|------|------|
|0-0---|3-3---|0-0---|------|----0-|----2-|0-0---|------|
|----0-|------|----0-|3-3---|------|0-0---|----0-|3-3---|
|------|------|------|----3-|3-3---|------|------|----3-|

|------|------|------|------|------|------|------|------|
|----0-|----2-|------|----0-|------|----0-|0-0---|----0-|
|------|0-0---|2-2---|------|2-2---|------|----0-|------|
|3-3---|------|----2-|3-3---|----2-|3-3---|------|3-3---|

|------|------|2-2---|------|0-0---|0-0---|------|------|
|0-0---|0-0---|----2-|0-0---|----0-|----0-|------|2-2---|
|----0-|----0-|------|----0-|------|------|2-2---|----2-|
|------|------|------|------|------|------|----2-|------|

|2-2-2-2-|2-2-2-2-2-|------|------|------|------|------|
|--------|----------|0-0---|------|----0-|----2-|0-0---|
|--------|----------|----0-|3-3---|------|0-0---|----0-|
|--------|----------|------|----3-|3-3---|------|------|

|------|------|------|------|------|------|------|------|
|------|----0-|----2-|------|----0-|------|----0-|0-0---|
|3-3---|------|0-0---|2-2---|------|2-2---|------|----0-|
|----3-|3-3---|------|----2-|3-3---|----2-|3-3---|------|

|--------|------|----0-|------|------|------|------|------|
|----0---|0-0---|3-3---|0-0---|------|----0-|----2-|0-0---|
|--------|----0-|------|----0-|3-3---|------|0-0---|----0-|
|3-3---3-|------|------|------|----3-|3-3---|------|------|

|------|------|------|------|------|------|------|------|
|------|----0-|----2-|------|------|------|------|0-0---|
|3-3---|------|0-0---|2-2---|------|2-2-2-|------|----0-|
|----3-|3-3---|------|----2-|3-3-3-|------|3-3-3-|------|

|------|------|------|2-2-2-|------|0-0---|0-0-----|------|
|------|0-0---|0-0---|------|0-0-0-|----0-|----0---|------|
|------|----0-|----0-|------|------|------|------0-|2-2---|
|3-3-3-|------|------|------|------|------|--------|----2-|

|------|2-2-2-2-|2-2-2-2-2-|------|------|------|------|
|2-2---|--------|----------|0-0---|------|----0-|----2-|
|----2-|--------|----------|----0-|3-3---|------|0-0---|
|------|--------|----------|------|----3-|3-3---|------|

|------|------|------|------|------|------|------|------|
|0-0---|------|----0-|----2-|------|----0-|------|----0-|
|----0-|3-3---|------|0-0---|2-2---|------|2-2---|------|
|------|----3-|3-3---|------|----2-|3-3---|----2-|3-3---|

|------|0-0-----|------|------|--------|--|
|0-0---|----0---|0-0---|3-3-3-|0-0-----|0-|
|----0-|--------|----0-|------|----0-0-|--|
|------|------3-|------|------|--------|--|



Created with TablEdit http://www.tabledit.com/

OptimusPrime

Submitted by OptimusPrime at Sun 26 May, 2002 6:46 pm

Author: ?
Composer: ?
Publisher: ?
Language: English

Reactions

1 post

CommonCrawl [Bot]
Anonymous
Sun 09 Feb, 2003 4:47 pm
thanx, but tabs are always much easier to follow if thers some indication of verse, chorus, etc.

dont mean to be pick or anythin,

thanx
1 post • Page 1 of 1

Follow Muzikum