The Beatles

The Beatles
Theres A Place (Bass tab)

Date: Thu, 11 Apr 2002 09:34:29 +0300
From: "Jan Bjorklund"
Subject: b/beatles/theres_a_place.btab

beatles_there's_a_place

Basstab by Jan Bjorklund, Finland
You are welcome to request for basstabs!
Fingering and positions as suggested by TablEdit, please use common sense!

TablEdited by Jan Bjorklund
Tuning : E A D G Time Signature: 4/4


|------|3-3-3-|------|3-||------|3-3-3-|------|3-3-3-|------|
|3-3-3-|------|3-3-3-|--||3-3-3-|------|3-3-3-|------|3-3-3-|
|------|------|------|--||------|------|------|------|------|
|------|------|------|--||------|------|------|------|------|

|7-7-7-|5-5-5-|5-2-3-5-|2-2-2-|3-3-3-|------|3-3-0-|------|
|------|------|--------|------|------|3-3-3-|------|0-0-0-|
|------|------|--------|------|------|------|------|------|
|------|------|--------|------|------|------|------|------|

|--||------|3-3-3-|------|3-3-3-|------|7-7-7-|5-5-5-|5-5-5-|
|0-||3-3-3-|------|3-3-3-|------|3-3-3-|------|------|------|
|--||------|------|------|------|------|------|------|------|
|--||------|------|------|------|------|------|------|------|

|3-3-3-|3-3-3-|5-5-5-|5-5-----|------|0-0-0-|------|2-2-2-|
|------|------|------|----5-2-|0-0-0-|------|3-3-3-|------|
|------|------|------|--------|------|------|------|------|
|------|------|------|--------|------|------|------|------|

|------|0-0-0-|------|2-2-2-|--||------|3-3-3-|------|3-3-3-|
|0-0-0-|------|3-3-3-|------|0-||3-3-3-|------|3-3-3-|------|
|------|------|------|------|--||------|------|------|------|
|------|------|------|------|--||------|------|------|------|

|------|7-7-7-|5-5-5-|5-2-3-5-|2-2-2-|3-3-3-|------|3-3-0-|
|3-3-3-|------|------|--------|------|------|3-3-3-|------|
|------|------|------|--------|------|------|------|------|
|------|------|------|--------|------|------|------|------|

|------|--|------|3-3-3-|------|3-3-3-|------|3-3-3-|------|
|0-0-0-|0-|3-3-3-|------|3-3-3-|------|3-3-3-|------|3-3-3-|
|------|--|------|------|------|------|------|------|------|
|------|--|------|------|------|------|------|------|------|

|3-3-3-|------|3-3-3-|------|3-3-3-|
|------|3-3-3-|------|3-3-3-|------|
|------|------|------|------|------|
|------|------|------|------|------|



Created with TablEdit http://www.tabledit.com/

OptimusPrime

Submitted by OptimusPrime at Sun 26 May, 2002 6:46 pm

Author: ?
Composer: ?
Publisher: ?
Language: English

Reactions

CommonCrawl [Bot]

Follow Muzikum