The Beatles

The Beatles
Penny Lane (Bass tab)

Date: Thu, 28 Mar 2002 10:23:22 +0200
From: "Jan Bjorklund"
Subject: b/beatles/penny_lane.btab

Beatles_PennyLane

TablEdited by Jan Bjorklund, Finland
You are welcome to request for tabs!
Fingering and positions as suggested by TablEdit, please use common sense!


TablEdited by Jan Bjorklund
Tuning : E A D G Time Signature: 4/4

| | | |
|-------------------------------------------------17--------17-----|
|---------------------------------------------17------17-----------|
|------------------------------------------------------------------|
|------------------------------------------------------------------|

| | | |
|-----------------16/---14--------14-------------------------------|
|-------------------------------------------------17/---15---------|
|------------------------------------------------------------------|
|------------------------------------------------------------------|

| | | |
|-10----------------------------12----------------12---------------|
|-----------------12----------------------------------------9------|
|------------------------------------------------------------------|
|------------------------------------------------------------------|

| | | |
|-5---------------4---------------2--------------------------------|
|-------------------------------------------------5----------------|
|------------------------------------------------------------------|
|------------------------------------------------------------------|

| | | |
|------------------------------------------------------------------|
|------------------------------------------------------------------|
|-3----------------------------------------------------------------|
|------------------------------------------------------------------|

| | | |
|-2----------------------------------------------------------------|
|------------------------------------------------------------------|
|------------------------------------------------------------------|
|------------------------------------------------------------------|

| | | |
|-1----------------------------------------------------------------|
|------------------------------------------------------------------|
|------------------------------------------------------------------|
|------------------------------------------------------------------|

| | | |
|-0-------------------------0---------------------0----------------|
|-----------------------------------------------------------0------|
|------------------------------------------------------------------|
|------------------------------------------------------------------|

| | | |
|-0-------------------------0---------------------0----------------|
|-------------------------------------------0---------------0------|
|------------------------------------------------------------------|
|------------------------------------------------------------------|

| | | |
|-5---------------4/----2---------2--------------------------------|
|-------------------------------------------------5----------------|
|------------------------------------------------------------------|
|------------------------------------------------------------------|

| | | |
||----------------------------------------------------------4------|
|*3-----------------------------5-----------------5----------------|
|*----------------5------------------------------------------------|
||-----------------------------------------------------------------|

| | | |
|-5---------------4---------------2--------------------------------|
|-------------------------------------------------5----------------|
|------------------------------------------------------------------|
|------------------------------------------------------------------|

| | | |
|------------------------------------------------------------------|
|------------------------------------------------------------------|
|-3----------------------------------------------------------------|
|------------------------------------------------------------------|

| | | |
|-2----------------------------------------------------------------|
|------------------------------------------------------------------|
|------------------------------------------------------------------|
|------------------------------------------------------------------|

| | | |
|-1---------------------------------------------------------------||
|-----------------------------------------------------------------||
|-----------------------------------------------------------------||
|-----------------------------------------------------------------||

>1| | | |
|-12--------------12--------------12--------------12---------------|
|-------------------------12----------------------------12---------|
|------------------------------------------------------------------|
|------------------------------------------------------------------|

| | | |
|-10--------------10/----------------------------------------------|
|-----------------------10-----------------------------------------|
|---------------------------------8-----------------------------1/-|
|------------------------------------------------------------------|

| | | |
|------------------------------------------------------------------|
|------------------------------------------------------------------|
|---------------------------1c--------------1-----1---------1------|
|------------------------------------------------------------------|

| | | |
|------------------------------------------------------------------|
|-------------0-------------0c------------------------------1------|
|-4-----------------------------------------1-----3----------------|
|------------------------------------------------------------------|

| | | |
|------------------------------------------------------------------|
|---------------------------1--------------------------------------|
|---------------------------------------------------------1--------|
|-----------------------------------------3c----4------------------|

| | | |
|------------------------------------------------------------------|
|-1----------------------------------------------------------------|
|-----------------------------------------1-----------------0------|
|---------------------------0---------------3-----4----------------|

| | | |
|------------------------------------------------------------------|
|-------------------------------------------------0----------------|
|-1-------------------------2---------------1c--------------1------|
|------------------------------------------------------------------|

| | | |
|------------------------------------------------------------------|
|-0-------------------------0---------------1/----3---------0------|
|------------------------------------------------------------------|
|------------------------------------------------------------------|

| | | |
|-------------------------------------------------8c---------------|
|-------------------------------------------7-8-------------8c-----|
|-6-------------------------6--------------------------------------|
|------------------------------------------------------------------|

| | | |
|------------------------------------------------------------------|
|-0----------------------------------------------------------------|
|---------------2/------0------------------------------------------|
|-------------------------------3----------------------------------|

| | | |
|-5---------------4/----2---------2-------------------------------||
|-------------------------------------------------5---------------*|
|-----------------------------------------------------------------*|
|-----------------------------------------------------------------||

>2| | | |
|-11----------12--------------12/-----------------12---------------|
|-------------------------------12---------------------------------|
|------------------------------------------------------------------|
|------------------------------------------------------------------|

| | | |
|-11------12----------------12c-------------------12---------------|
|-------------------------------------------12--------12-----------|
|---------------------------------------------------------10-------|
|------------------------------------------------------------------|

| | | |
|-4-----5---------4---------------2--------------------------------|
|-------------------------------------------------5----------------|
|------------------------------------------------------------------|
|------------------------------------------------------------------|

| | | |
|-----------------------------------------------------------4------|
|-3-----------------------------5-----------------5----------------|
|-----------------5------------------------------------------------|
|------------------------------------------------------------------|

| | | |
|-5---------------4---------------2--------------------------------|
|-------------------------------------------------5----------------|
|------------------------------------------------------------------|
|------------------------------------------------------------------|

| | | |
|-5---------------5---------------5---------------5----------------|
|---------------------------------------------------------5--------|
|------------------------------------------------------------------|
|------------------------------------------------------------------|

| | | |
|-2---------------2---------------2---------------2-------0--------|
|------------------------------------------------------------------|
|------------------------------------------------------------------|
|------------------------------------------------------------------|

| | | |
|-1c--------------1---------------1---------------1----------------|
|------------------------------------------------------------------|
|------------------------------------------------------------------|
|------------------------------------------------------------------|

| | | |
|-0c--------------0---------------0---------------0----------------|
|------------------------------------------------------------------|
|------------------------------------------------------------------|
|------------------------------------------------------------------|

| | | |
|-9---------7------------------------------------------------------|
|---------------10----------7c-------------------------------------|
|-------------------------------8c---------------------------------|
|------------------------------------------------------------------|

| | | |
|------------------------------------------------------------------|
|------------------------------------------------------------------|
|---------1-----------------1c--------------1-----1---------1------|
|-4/---------------------------------------------------------------|

| | | |
|------------------------------------------------------------------|
|-1----------------------------------------------------------------|
|-----------------------------------------------------------0------|
|---------------------------0---------------3-----4----------------|

| | | |
|-------------------------------------------------8c---------------|
|-------------------------------------------7---------------8c-----|
|-6-------------------------6--------------------------------------|
|------------------------------------------------------------------|

| | | |
|------------------------------------------------------------------|
|------------------------------------------------------------------|
|-3----------------------------------------------------------------|
|------------------------------------------------------------------|

| | | |
|------------------------------------------------------------------|
|------------------------------------------------------------------|
|-0---------------0---------------0---------------0----------------|
|------------------------------------------------------------------|

| | | |
|------------------------------------------------------------------|
|------------------------------------------------------------------|
|------------------------------------------------------------------|
|-4---------------4---------------4---------------4----------------|

| | | |
|------------------------------------------------------------------|
|------------------------------------------------------------------|
|------------------------------------------------------------------|
|-3---------------3---------------3---------------3----------------|

| | | |
|------------------------------------------------------------------|
|-------------0-------------0c------------------------------1------|
|-4-----------------------------------------1-----3----------------|
|------------------------------------------------------------------|

| | | |
|------------------------------------------------------------------|
|---------------------------1--------------------------------------|
|---------------------------------------------------------1--------|
|-----------------------------------------3c----4------------------|

| | | |
|------------------------------------------------------------------|
|-1----------------------------------------------------------------|
|-----------------------------------------------------------0------|
|---------------------------0---------------3-----4----------------|

| | | |
|------------------------------------------------------------------|
|-0----------------------------------------------------------------|
|---------------2/------0------------------------------------------|
|---------------------------------3--------------------------------|

| | | |
|------------------------------------------------------------------|
|------------------------------------------------------------------|
|-1/----------3-------------3c--------------3-----3---------3------|
|------------------------------------------------------------------|

| | | |
|------------------------------------------------------------------|
|-1-----------2---------------2c------------------0---------3------|
|-------------------------------------------3----------------------|
|------------------------------------------------------------------|

| | | |
|------------------------------------------------------------------|
|------------------------------------------------------------------|
|-----------------------------------------0c----1c----------3------|
|---------------------------1--------------------------------------|

| | | |
|------------------------------------------------------------------|
|------------------------------------------------------------------|
|-------------------------------------------0c----1c--------2------|
|-1-------------------------2--------------------------------------|

| | | |
|------------------------------------------------------------------|
|-------------------------------------------------2----------------|
|-3-------------------------4---------------3c--------------3------|
|------------------------------------------------------------------|

| | | |
|-------------------------------------------------0----------------|
|-2-----------------------------------------3/---------------------|
|------------------------------------------------------------------|
|---------------------------0-------------------------------1------|

| | | |
|-----------------------------------------0-------2----------------|
|-2---------------3---------------3--------------------------------|
|------------------------------------------------------------------|
|------------------------------------------------------------------|

| | | |
|-5c------------------------------4-5-------5----------------------|
|-----------------3-------------------------------3----------------|
|------------------------------------------------------------------|
|------------------------------------------------------------------|

| | | |
|------------------------------------------------------------------|
|------------------------------------------------------------------|
|-3c---------------------------------------------------------------|
|------------------------------------------------------------------|



Created with TablEdit http://www.tabledit.com/

OptimusPrime

Submitted by OptimusPrime at Sun 26 May, 2002 6:46 pm

Author: ?
Composer: ?
Publisher: ?
Language: English

Reactions

CommonCrawl [Bot]

Follow Muzikum