The Beatles

The Beatles
Octopus Garden (Bass tab)

Date: Thu, 28 Mar 2002 10:22:36 +0200
From: "Jan Bjorklund"
Subject: b/beatles/octopus_garden.btab

beatles_octopus garden

TablEdited by Jan Bjorklund, Finland
You are welcome to request for tabs!
Fingering and positions as suggested by TablEdit, please use common sense!


TablEdited by Jan Bjorklund
Tuning : E A D G Time Signature: 4/4

| | | |
|------------------------------------------------------------------|
|---------------------------------2--------------------------------|
|-----------------2------------------------------------------------|
|------------------------------------------------------------------|

| | | |
|------------------------------------------------------------------|
|------------------------------------------------------------------|
|------------------------------------------------------------------|
|------------------------------------------------------------------|

| | | |
|------------------------------------------------------------------|
|-------------------------------------------------1----------------|
|---------2-------2---------------4--------------------------------|
|------------------------------------------------------------------|

| | | |
|------------------------------------------------------------------|
|-2----------------------------------------------------------------|
|---------------------------------2--------------------------------|
|------------------------------------------------------------------|

| | | |
|------------------------------------------------------------------|
|------------------------------------------------------------------|
|-4----------------------------------------------------------------|
|---------------------------------4--------------------------------|

| | | |
|------------------------------------------------------------------|
|------------------------------------------------------------------|
|-0----------------------------------------------------------------|
|---------------------------------0--------------------------------|

| | | |
|------------------------------------------------------------------|
|---------------------------------1--------------------------------|
|-2---------------4-------------------------------2----------------|
|------------------------------------------------------------------|

| | | |
|------------------------------------------------------------------|
|-2----------------------------------------------------------------|
|---------------------------------2--------------------------------|
|------------------------------------------------------------------|

| | | |
|------------------------------------------------------------------|
|-2-------------------------------1--------------------------------|
|------------------------------------------------------------------|
|------------------------------------------------------------------|

| | | |
|------------------------------------------------------------------|
|------------------------------------------------------------------|
|-4----------------------------------------------------------------|
|---------------------------------4--------------------------------|

| | | |
|------------------------------------------------------------------|
|------------------------------------------------------------------|
|-4-------------------------------2--------------------------------|
|------------------------------------------------------------------|

| | | |
|------------------------------------------------------------------|
|---------------------------------2--------------------------------|
|-0----------------------------------------------------------------|
|------------------------------------------------------------------|

| | | |
|------------------------------------------------------------------|
|------------------------------------------------------------------|
|-0-------------------------------0---------------0----------------|
|------------------------------------------------------------------|

| | | |
|------------------------------------------------------------------|
|------------------------------------------------------------------|
|-2---------------2---------------2---------------2----------------|
|------------------------------------------------------------------|

| | | |
|------------------------------------------------------------------|
|---------------------------------1-------------------------1------|
|-2---------------4-----------------------2-------4----------------|
|------------------------------------------------------------------|

| | | |
|------------------------------------------------------------------|
|-2----------------------------------------------------------------|
|---------------------------------2--------------------------------|
|------------------------------------------------------------------|

| | | |
|------------------------------------------------------------------|
|-2-------------------------------1--------------------------------|
|------------------------------------------------------------------|
|------------------------------------------------------------------|

| | | |
|------------------------------------------------------------------|
|------------------------------------------------------------------|
|-4----------------------------------------------------------------|
|---------------------------------4--------------------------------|

| | | |
|------------------------------------------------------------------|
|------------------------------------------------------------------|
|-4-------------------------------2--------------------------------|
|------------------------------------------------------------------|

| | | |
|------------------------------------------------------------------|
|---------------------------------2--------------------------------|
|-0----------------------------------------------------------------|
|------------------------------------------------------------------|

| | | |
|------------------------------------------------------------------|
|------------------------------------------------------------------|
|-0-------------------------------0---------------0----------------|
|------------------------------------------------------------------|

| | | |
|------------------------------------------------------------------|
|------------------------------------------------------------------|
|-2---------------2---------------2---------------2----------------|
|------------------------------------------------------------------|

| | | |
|------------------------------------------------------------------|
|-----------------1-------------------------------1----------------|
|-4-------------------------------2-------4------------------------|
|------------------------------------------------------------------|

| | | |
|------------------------------------------------------------------|
|------------------------------------------------------------------|
|-4----------------------------------------------------------------|
|------------------------------------------------------------------|

| | | |
|------------------------------------------------------------------|
|------------------------------------------------------------------|
|------------------------------------------------------------------|
|------------------------------------------------------------------|

| | | |
|------------------------------------------------------------------|
|------------------------------------------------------------------|
|------------------------------------------------------------------|
|------------------------------------------------------------------|

| | | |
|------------------------------------------------------------------|
|------------------------------------------------------------------|
|-4-------------------------------2--------------------------------|
|------------------------------------------------------------------|

| | | |
|------------------------------------------------------------------|
|------------------------------------------------------------------|
|-0----------------------------------------------------------------|
|------------------------------------------------------------------|

| | | |
|------------------------------------------------------------------|
|------------------------------------------------------------------|
|------------------------------------------------------------------|
|------------------------------------------------------------------|

| | | |
|------------------------------------------------------------------|
|------------------------------------------------------------------|
|-2---------------2---------------2---------------2----------------|
|------------------------------------------------------------------|

| | | |
|------------------------------------------------------------------|
|-------------------------------------------------1----------------|
|-----------------2---------------4--------------------------------|
|------------------------------------------------------------------|

| | | |
|---------------------------------9/----------2--------------------|
|-2----------------------------------------------------------------|
|------------------------------------------------------------------|
|------------------------------------------------------------------|

| | | |
|------------------------------------------------------------------|
|-2-------------------------------1--------------------------------|
|------------------------------------------------------------------|
|------------------------------------------------------------------|

| | | |
|------------------------------------------------------------------|
|------------------------------------------------------------------|
|-4----------------------------------------------------------------|
|------------------------------------------------------------------|

| | | |
|------------------------------------------------------------------|
|------------------------------------------------------------------|
|-4-------------------------------2--------------------------------|
|------------------------------------------------------------------|

| | | |
|------------------------------------------------------------------|
|------------------------------------------------------------------|
|-0----------------------------------------------------------------|
|------------------------------------------------------------------|

| | | |
|------------------------------------------------------------------|
|-------------------------------------------------1----------------|
|-2---------------2---------------4--------------------------------|
|------------------------------------------------------------------|

| | | |
|------------------------------------------------------------------|
|-2---------------2---------------2--------------------------------|
|------------------------------------------------------------------|
|------------------------------------------------------------------|

| | | |
|------------------------------------------------------------------|
|-2-------------------------------2--------------------------------|
|-------------------------------------------4-----2----------------|
|------------------------------------------------------------------|

| | | |
|------------------------------------------------------------------|
|-2----------------------------------------------------------------|
|---------------------------------2--------------------------------|
|------------------------------------------------------------------|

| | | |
|------------------------------------------------------------------|
|-2-------------------------------1--------------------------------|
|------------------------------------------------------------------|
|------------------------------------------------------------------|

| | | |
|------------------------------------------------------------------|
|------------------------------------------------------------------|
|-4----------------------------------------------------------------|
|---------------------------------4--------------------------------|

| | | |
|------------------------------------------------------------------|
|------------------------------------------------------------------|
|-4-------------------------------2--------------------------------|
|------------------------------------------------------------------|

| | | |
|------------------------------------------------------------------|
|---------------------------------2--------------------------------|
|-0----------------------------------------------------------------|
|------------------------------------------------------------------|

| | | |
|------------------------------------------------------------------|
|------------------------------------------------------------------|
|-0-------------------------------0---------------0----------------|
|------------------------------------------------------------------|

| | | |
|------------------------------------------------------------------|
|------------------------------------------------------------------|
|-2---------------2---------------2---------------2----------------|
|------------------------------------------------------------------|

| | | |
|------------------------------------------------------------------|
|---------------------------------1-------------------------1------|
|-2---------------4-----------------------2-------4----------------|
|------------------------------------------------------------------|

| | | |
|------------------------------------------------------------------|
|-2----------------------------------------------------------------|
|---------------------------------2--------------------------------|
|------------------------------------------------------------------|

| | | |
|------------------------------------------------------------------|
|-2-------------------------------1--------------------------------|
|------------------------------------------------------------------|
|------------------------------------------------------------------|

| | | |
|------------------------------------------------------------------|
|------------------------------------------------------------------|
|-4----------------------------------------------------------------|
|---------------------------------4--------------------------------|

| | | |
|------------------------------------------------------------------|
|------------------------------------------------------------------|
|-4-------------------------------2--------------------------------|
|------------------------------------------------------------------|

| | | |
|------------------------------------------------------------------|
|---------------------------------2--------------------------------|
|-0----------------------------------------------------------------|
|------------------------------------------------------------------|

| | | |
|------------------------------------------------------------------|
|------------------------------------------------------------------|
|-0-------------------------------0---------------0----------------|
|------------------------------------------------------------------|

| | | |
|------------------------------------------------------------------|
|------------------------------------------------------------------|
|-2---------------2---------------2---------------2----------------|
|------------------------------------------------------------------|

| | | |
|------------------------------------------------------------------|
|-----------------1-------------------------------1----------------|
|-4-------------------------------2-------4------------------------|
|------------------------------------------------------------------|

| | | |
|------------------------------------------------------------------|
|------------------------------------------------------------------|
|-4----------------------------------------------------------------|
|------------------------------------------------------------------|

| | | |
|------------------------------------------------------------------|
|------------------------------------------------------------------|
|------------------------------------------------------------------|
|------------------------------------------------------------------|

| | | |
|------------------------------------------------------------------|
|------------------------------------------------------------------|
|------------------------------------------------------------------|
|------------------------------------------------------------------|

| | | |
|------------------------------------------------------------------|
|------------------------------------------------------------------|
|-4-------------------------------2--------------------------------|
|------------------------------------------------------------------|

| | | |
|------------------------------------------------------------------|
|------------------------------------------------------------------|
|-0----------------------------------------------------------------|
|------------------------------------------------------------------|

| | | |
|------------------------------------------------------------------|
|------------------------------------------------------------------|
|------------------------------------------------------------------|
|------------------------------------------------------------------|

| | | |
|------------------------------------------------------------------|
|------------------------------------------------------------------|
|-2---------------2---------------2--------------------------------|
|------------------------------------------------------------------|

| | | |
|------------------------------------------------------------------|
|-------------------------------------------------1----------------|
|-----------------2---------------4--------------------------------|
|------------------------------------------------------------------|

| | | |
|---------------------------------9/----------2--------------------|
|-2----------------------------------------------------------------|
|------------------------------------------------------------------|
|------------------------------------------------------------------|

| | | |
|------------------------------------------------------------------|
|-2-------------------------------1--------------------------------|
|------------------------------------------------------------------|
|------------------------------------------------------------------|

| | | |
|------------------------------------------------------------------|
|------------------------------------------------------------------|
|-4----------------------------------------------------------------|
|------------------------------------------------------------------|

| | | |
|------------------------------------------------------------------|
|------------------------------------------------------------------|
|-4-------------------------------2--------------------------------|
|------------------------------------------------------------------|

| | | |
|------------------------------------------------------------------|
|------------------------------------------------------------------|
|-0-------------------------------4--------------------------------|
|------------------------------------------------------------------|

| | | |
|------------------------------------------------------------------|
|---------------------------------1--------------------------------|
|-2---------------4-------------------------------2----------------|
|------------------------------------------------------------------|

| | | |
|------------------------------------------------------------------|
|-2----------------------------------------------------------------|
|---------------------------------2--------------------------------|
|------------------------------------------------------------------|

| | | |
|-7/15----7-------7-------7-------7c--------------6-------4--------|
|------------------------------------------------------------------|
|------------------------------------------------------------------|
|------------------------------------------------------------------|

| | | |
|-2---------------2------------------------------------------------|
|---------------------------------2--------------------------------|
|------------------------------------------------------------------|
|------------------------------------------------------------------|

| | | |
|-2---------------2------------------------------------------------|
|---------------------------------2--------------------------------|
|------------------------------------------------------------------|
|------------------------------------------------------------------|

| | | |
|------------------------------------------------------------------|
|-4---------------4------------------------------------------------|
|---------------------------------4--------------------------------|
|------------------------------------------------------------------|

| | | |
|------------------------------------------------------------------|
|-4---------------4------------------------------------------------|
|---------------------------------4--------------------------------|
|------------------------------------------------------------------|

| | | |
|------------------------------------------------------------------|
|-0---------------0------------------------------------------------|
|---------------------------------0--------------------------------|
|------------------------------------------------------------------|

| | | |
|------------------------------------------------------------------|
|-0---------------0-------------------------------0----------------|
|---------------------------------0--------------------------------|
|------------------------------------------------------------------|

| | | |
|------------------------------------------------------------------|
|-2-------------2---------------2-------------------------------2--|
|------------------------------------------------------------------|
|------------------------------------------------------------------|

| | | |
|---------------2--------------------------------------------------|
|-------4-----------------------2----------------------------------|
|------------------------------------------------------------------|
|------------------------------------------------------------------|

| | | |
|-2---------------2------------------------------------------------|
|---------------------------------2--------------------------------|
|------------------------------------------------------------------|
|------------------------------------------------------------------|

| | | |
|-2---------------2------------------------------------------------|
|---------------------------------2--------------------------------|
|------------------------------------------------------------------|
|------------------------------------------------------------------|

| | | |
|------------------------------------------------------------------|
|-4---------------4------------------------------------------------|
|---------------------------------4--------------------------------|
|------------------------------------------------------------------|

| | | |
|------------------------------------------------------------------|
|-4---------------4---------------2--------------------------------|
|------------------------------------------------------------------|
|------------------------------------------------------------------|

| | | |
|------------------------------------------------------------------|
|-0---------------0---------------0--------------------------------|
|------------------------------------------------------------------|
|------------------------------------------------------------------|

| | | |
|------------------------------------------------------------------|
|-2---------------2-----------------------0------------------------|
|-----------------------------------------------4---------2--------|
|------------------------------------------------------------------|

| | | |
|------------------------------------------------------------------|
|------------------------------------------------------------------|
|-0---------------0---------------0---------------0----------------|
|------------------------------------------------------------------|

| | | |
|------------------------------------------------------------------|
|-------------------------------------------------1----------------|
|-2---------------2---------------4--------------------------------|
|------------------------------------------------------------------|

| | | |
|------------------------------------------------------------------|
|-2----------------------------------------------------------------|
|---------------------------------2--------------------------------|
|------------------------------------------------------------------|

| | | |
|------------------------------------------------------------------|
|-2-------------------------------1--------------------------------|
|------------------------------------------------------------------|
|------------------------------------------------------------------|

| | | |
|------------------------------------------------------------------|
|------------------------------------------------------------------|
|-4----------------------------------------------------------------|
|---------------------------------4--------------------------------|

| | | |
|------------------------------------------------------------------|
|------------------------------------------------------------------|
|-4---------------4-------------------------------2----------------|
|------------------------------------------------------------------|

| | | |
|------------------------------------------------------------------|
|---------------------------------2--------------------------------|
|-0----------------------------------------------------------------|
|------------------------------------------------------------------|

| | | |
|------------------------------------------------------------------|
|---------------------------------2--------------------------------|
|-0-----------------------------------------------0----------------|
|------------------------------------------------------------------|

| | | |
|------------------------------------------------------------------|
|------------------------------------------------------------------|
|-2---------------2---------------4---------------4----------------|
|------------------------------------------------------------------|

| | | |
|------------------------------------------------------------------|
|-1-----------------------------------------------1----------------|
|-----------------2---------------4--------------------------------|
|------------------------------------------------------------------|

| | | |
|------------------------------------------------------------------|
|-2---------------2------------------------------------------------|
|---------------------------------2--------------------------------|
|------------------------------------------------------------------|

| | | |
|------------------------------------------------------------------|
|-2-------------------------------1--------------------------------|
|------------------------------------------------------------------|
|------------------------------------------------------------------|

| | | |
|------------------------------------------------------------------|
|------------------------------------------------------------------|
|-4----------------------------------------------------------------|
|---------------------------------4--------------------------------|

| | | |
|------------------------------------------------------------------|
|------------------------------------------------------------------|
|-4---------------4---------------2--------------------------------|
|------------------------------------------------------------------|

| | | |
|------------------------------------------------------------------|
|---------------------------------2--------------------------------|
|-0----------------------------------------------------------------|
|------------------------------------------------------------------|

| | | |
|------------------------------------------------------------------|
|---------------------------------2--------------------------------|
|-0---------------0------------------------------------------------|
|------------------------------------------------------------------|

| | | |
|------------------------------------------------------------------|
|---------------------------------1--------------------------------|
|-2---------------2------------------------------------------------|
|------------------------------------------------------------------|

| | | |
|------------------------------------------------------------------|
|-------------------------------------------------1----------------|
|-2---------------2---------------4--------------------------------|
|------------------------------------------------------------------|

| | | |
|------------------------------------------------------------------|
|------------------------------------------------------------------|
|-4----------------------------------------------------------------|
|------------------------------------------------------------------|

| | | |
|------------------------------------------------------------------|
|------------------------------------------------------------------|
|------------------------------------------------------------------|
|------------------------------------------------------------------|

| | | |
|------------------------------------------------------------------|
|------------------------------------------------------------------|
|------------------------------------------------------------------|
|------------------------------------------------------------------|

| | | |
|------------------------------------------------------------------|
|------------------------------------------------------------------|
|-4-------------------------------2--------------------------------|
|------------------------------------------------------------------|

| | | |
|------------------------------------------------------------------|
|------------------------------------------------------------------|
|-0----------------------------------------------------------------|
|------------------------------------------------------------------|

| | | |
|------------------------------------------------------------------|
|------------------------------------------------------------------|
|------------------------------------------------------------------|
|------------------------------------------------------------------|

| | | |
|------------------------------------------------------------------|
|------------------------------------------------------------------|
|-2---------------2---------------2---------------2----------------|
|------------------------------------------------------------------|

| | | |
|------------------------------------------------------------------|
|-------------------------------------------------1----------------|
|-----------------2---------------4--------------------------------|
|------------------------------------------------------------------|

| | | |
|---------------------------------9/----------2--------------------|
|-2----------------------------------------------------------------|
|------------------------------------------------------------------|
|------------------------------------------------------------------|

| | | |
|------------------------------------------------------------------|
|-2-------------------------------1--------------------------------|
|------------------------------------------------------------------|
|------------------------------------------------------------------|

| | | |
|------------------------------------------------------------------|
|------------------------------------------------------------------|
|-4----------------------------------------------------------------|
|------------------------------------------------------------------|

| | | |
|------------------------------------------------------------------|
|------------------------------------------------------------------|
|-4-------------------------------2--------------------------------|
|------------------------------------------------------------------|

| | | |
|------------------------------------------------------------------|
|---------------------------------2--------------------------------|
|-0----------------------------------------------------------------|
|------------------------------------------------------------------|

| | | |
|------------------------------------------------------------------|
|-------------------------------------------------1----------------|
|-2-------------------------------4--------------------------------|
|------------------------------------------------------------------|

| | | |
|------------------------------------------------------------------|
|-2----------------------------------------------------------------|
|---------------------------------2--------------------------------|
|------------------------------------------------------------------|

| | | |
|------------------------------------------------------------------|
|------------------------------------------------------------------|
|-4-------------------------------2--------------------------------|
|------------------------------------------------------------------|

| | | |
|------------------------------------------------------------------|
|-------------------------------------------------2----------------|
|-0-------------------------------4--------------------------------|
|------------------------------------------------------------------|

| | | |
|------------------------------------------------------------------|
|---------------------------------1---------------4----------------|
|-2----------------------------------------------------------------|
|------------------------------------------------------------------|

| | | |
|------------------------------------------------------------------|
|------------------------------------------------------------------|
|-4---------------4---------------4---------------4----------------|
|------------------------------------------------------------------|

| | | |
|------------------------------------------------------------------|
|------------------------------------------------------------------|
|-4-------4-------2---------------2--------------------------------|
|------------------------------------------------------------------|

| | | |
|------------------------------------------------------------------|
|------------------------------------------------------------------|
|-0-------------------------------4--------------------------------|
|------------------------------------------------------------------|

| | | |
|------------------------------------------------------------------|
|---------------------------------1--------------------------------|
|-2----------------------------------------------------------------|
|------------------------------------------------------------------|

| | | |
|------------------------------------------------------------------|
|-2----------------------------------------------------------------|
|------------------------------------------------------------------|
|------------------------------------------------------------------|

| | | |
|------------------------------------------------------------------|
|-----------------1---------------2--------------------------------|
|------------------------------------------------------------------|
|------------------------------------------------------------------|




Created with TablEdit http://www.tabledit.com/

OptimusPrime

Submitted by OptimusPrime at Sun 26 May, 2002 6:46 pm

Author: ?
Composer: ?
Publisher: ?
Language: English

Reactions

CommonCrawl [Bot]

Follow Muzikum