The Beatles

The Beatles
Long Tall Sally (Bass tab)

Date: Thu, 11 Apr 2002 21:42:49 +0200 (CEST)
From: =?iso-8859-1?q?Jan=20Bj=F6rklund?=
Subject: b/beatles/long_tall_sally.btab

beatles_long_tall_sally

TablEdited by Jan Bjorklund
Tuning : E A D G Time Signature: 4/4


|--|--|--||--------|--------|--------|--------|--------|--------|
|--|--|--||--------|--------|--------|--------|--------|--------|
|--|--|--||1-1-1-1-|1-1-1-1-|--------|--------|3-3-3-3-|1-1-1-1-|
|1-|1-|1-||--------|--------|1-1-1-1-|1-1-1-1-|--------|--------|

|--------|--------|--|--|--||--------|--------|--------|--------|
|--------|--------|--|--|--||--------|--------|--------|--------|
|--------|--------|--|--|--||1-1-1-1-|1-1-1-1-|--------|--------|
|1-1-1-1-|1-1-1-1-|1-|1-|1-||--------|--------|1-1-1-1-|1-1-1-1-|

|--------|--------|--------|--------|--|--|--||--------|--------|
|--------|--------|--------|--------|--|--|--||--------|--------|
|3-3-3-3-|1-1-1-1-|--------|--------|--|--|--||1-1-1-1-|1-1-1-1-|
|--------|--------|1-1-1-1-|1-1-1-1-|1-|1-|1-||--------|--------|

|--------|--------|--------|--------|--------|--------|----------|
|--------|--------|--------|--------|--------|--------|------0-1-|
|--------|--------|3-3-3-3-|1-1-1-1-|--------|--------|--0-3-----|
|1-1-1-1-|1-1-1-1-|--------|--------|1-1-1-1-|1-1-1-1-|1---------|

|------|--------|--------|------0-|1-0-----|--------|--------|
|0-----|------0-|1-0-----|--0-3---|----3-0-|------0-|1-0-----|
|--3-0-|--0-3---|----3-2-|1-------|--------|--0-3---|----3-0-|
|------|1-------|--------|--------|--------|1-------|--------|

|----0---|--------|--------|--------|----------|------|--------|
|--2-----|--0-3-0-|------0-|--------|------0-1-|0-----|------0-|
|3-----3-|1-------|--0-3---|3-3-3-3-|--0-3-----|--3-0-|--0-3---|
|--------|--------|1-------|--------|1---------|------|1-------|

|--------|------0-|1-0-----|--------|--------|----0---|--------|
|1-0-----|--0-3---|----3-0-|------0-|1-0-----|--2-----|--0-3-0-|
|----3-2-|1-------|--------|--0-3---|----3-0-|3-----3-|1-------|
|--------|--------|--------|1-------|--------|--------|--------|

|--------|--------|--|--|--||--------|--------|--------|--------|
|------0-|--------|--|--|--||--------|--------|--------|--------|
|--0-3---|3-3-3-3-|--|--|--||1-1-1-1-|1-1-1-1-|--------|--------|
|1-------|--------|1-|1-|1-||--------|--------|1-1-1-1-|1-1-1-1-|

|--------|--------|--------|--------|--|--|--||--------|--------|
|--------|--------|--------|--------|--|--|--||--------|--------|
|3-3-3-3-|1-1-1-1-|--------|--------|--|--|--||1-1-1-1-|1-1-1-1-|
|--------|--------|1-1-1-1-|1-1-1-1-|1-|1-|1-||--------|--------|

|--------|--------|--------|--------|--------|--------|--------|
|--------|--------|--------|--------|--------|--------|--------|
|--------|--------|3-3-3-3-|1-1-1-1-|--------|--------|--0-1-2-|
|1-1-1-1-|1-1-1-1-|--------|--------|1-1-1-1-|1-1-1-1-|1-------|

|--------|--------|--------|--------|--------|--------|--------|
|----0-2-|3-1-0---|--------|--0-1-2-|3---3---|--------|--------|
|3-4-----|------4-|3-0---0-|1-------|--1-----|--0-1-2-|3---3---|
|--------|--------|----1---|--------|------2-|1-------|--1---1-|

|--------|--------|--------||
|--------|--------|--------||
|3---1-3-|1-------|--------||
|--3-----|--4-3-2-|1-1-2-1-||



Created with TablEdit http://www.tabledit.com/

OptimusPrime

Submitted by OptimusPrime at Sun 26 May, 2002 6:46 pm

Author: ?
Composer: ?
Publisher: ?
Language: English

Reactions

CommonCrawl [Bot]

Follow Muzikum