The Beatles

The Beatles
Ill Get You (Bass tab)

Date: Thu, 11 Apr 2002 21:38:26 +0200 (CEST)
From: =?iso-8859-1?q?Jan=20Bj=F6rklund?=
Subject: b/beatles/ill_get_you.btab

Beatles_I'll Get You

TablEdited by Jan Bjorklund
Tuning : E A D G Time Signature: 4/4


|1-----|------|1-1-1-|------|1-1-1-|----1---|----1---|--------|
|--4-3-|------|------|------|------|--------|--------|4-4---4-|
|------|4-4-4-|------|4-4-4-|------|4-4---3-|4-4---4-|----4---|
|------|------|------|------|------|--------|--------|--------|

|1-1---1-|------|------|--------|1-1-1-|------|1-1-1-|----1---1-|
|----1---|------|------|4-4---4-|------|------|------|--3---3---|
|--------|4-4-4-|1-1-1-|----4---|------|4-4-4-|------|4---------|
|--------|------|------|--------|------|------|------|----------|

|------1-|--------|1-1-1-1-|--------|1-1-1-|----1---|----1---|
|----3---|4-4---4-|--------|------3-|------|--------|--------|
|1-1-----|----4---|--------|4-4-4---|------|4-4---3-|4-4---4-|
|--------|--------|--------|--------|------|--------|--------|

|--------|1-1---1-|------|------|--------|1-1-1-|------|1-1-1-|
|4-4---4-|----1---|------|------|4-4---4-|------|------|------|
|----4---|--------|4-4-4-|1-1-1-|----4---|------|4-4-4-|------|
|--------|--------|------|------|--------|------|------|------|

|----1---1-|------1-|--------|1-1-1-1-|--------|1-1-1-|--------|
|--3---3---|----3---|4-4---4-|--------|------3-|------|4-4---3-|
|4---------|1-1-----|----4---|--------|4-4-4---|------|----4---|
|----------|--------|--------|--------|--------|------|--------|

|------1-|----1---|----1---|----3---|----3---|1-1-1-1-|1-1-------------|
|4-4-----|--------|--------|1-1---0-|1-1---1-|--------|----4-4-3-3-1-1-|
|----4---|4-4---3-|4-4---4-|--------|--------|--------|----------------|
|--------|--------|--------|--------|--------|--------|----------------|

|----1---|----1---|--------|1-1---1-|------|------|--------|
|--------|--------|4-4---4-|----1---|------|------|4-4---4-|
|4-4---3-|4-4---4-|----4---|--------|4-4-4-|1-1-1-|----4---|
|--------|--------|--------|--------|------|------|--------|

|1-1-1-|------|1-1-1-|----1---1-|------1-|--------|1-1-1-1-|
|------|------|------|--3---3---|----3---|4-4---4-|--------|
|------|4-4-4-|------|4---------|1-1-----|----4---|--------|
|------|------|------|----------|--------|--------|--------|

|----1---|1-1-1-|----1---|1-1-1-|--|||
|--3---3-|------|--3---3-|------|--|||
|4-------|------|4-------|------|4-|||
|--------|------|--------|------|--|||


Created with TablEdit http://www.tabledit.com/

OptimusPrime

Submitted by OptimusPrime at Sun 26 May, 2002 6:46 pm

Author: ?
Composer: ?
Publisher: ?
Language: English

Reactions

CommonCrawl [Bot]

Follow Muzikum