The Beatles

The Beatles
Drive My Car (Bass tab)

Date: Thu, 28 Mar 2002 10:16:40 +0200
From: "Jan Bjorklund"
Subject: b/beatles/drive_my_car.btab

Beatles-Drive My Car

TablEdited by Jan Bjorklund, Finland
You are welcome to request for tabs!
Fingering and positions as suggested by TablEdit, please use common sense!

TablEdited by Jan Bjorklund
Tuning : E A D G Time Signature: 4/4

| | | |
|------------------------------------------------------------------|
|-------------------------------------------------0-------0--------|
|-----------------------------------------3------------------------|
|---------------------------------3--------------------------------|

| | | |
|------------------------------------------------------------------|
|------------------------------------------------------------------|
|------------------------------------------------------------------|
|------------------------------------------------------------------|

| | | |
||----------------------------------------2------------------------|
|*0-------------------------------4---------------4---2---0--------|
|*-----------------------------------------------------------------|
||-----------------------------------------------------------------|

>3| | | |
|-----------------------------------------------------------------||
|-----------------------------------------0-----------------------*|
|---------------------------------2---------------2---0-----------*|
|-3---------------------------3---------------------------3-------||

| | | |
|------------------------------------------------------------------|
|------------------------------------------------------------------|
|-0---------------0-------0-------0---------------0-------0--------|
|------------------------------------------------------------------|

| | | |
|------------------------------------------------------------------|
|-----------------------------------------2-------4---2------------|
|-0---------------0-------0-------4-----------------------4--------|
|------------------------------------------------------------------|

| | | |
||-----------------------------------------------------------------|
|*-----------------------------------------------------------------|
|*2---------------2---------------2---------------2-------0--------|
||-----------------------------------------------------------------|

| | | |
|-----------------------------------------------------------------||
|-----------------------------------------------------------------*|
|---------------------------------------------------------0-------*|
|-3---------------3---------------3---------------3---------------||

| | | |
|------------------------------------------------------------------|
|------------------------------------------------------------------|
|-2---------------2---------------2---------------2----------------|
|------------------------------------------------------------------|

| | | |
|------------------------------------------------------------------|
|------------------------------------------------------------------|
|---------------------------------0--------------------------------|
|-0-------2-------3-------0---------------3-------2-------0--------|

| | | |
|------------------------------------------------------------------|
|-0---------------0-----------------------0------------------------|
|-----------------------------0---2---------------2----------------|
|---------------------------------------------------------3--------|

| | | |
|-----------------------------------------------------------------||
|-----------------------------------------2-----------------------*|
|-0---------------0-----------0---4---------------4-------0-------*|
|-----------------------------------------------------------------||

| | | |
|------------------------------------------------------------------|
|-0---------------0---------------0-------0-------0----------------|
|------------------------------------------------------------------|
|------------------------------------------------------------------|

| | | |
|-----------------------------------------------------------------||
|-----------------------------------------------------------------*|
|-0---------------------------------------------------------------*|
|-----------------------------------------------------------------||

| | | |
|------------------------------------------------------------------|
|-0---------------0------------------------------------------------|
|------------------------------------------------------------------|
|---------------------------------3-------3---------------3--------|

| | | |
|------------------------------------------------------------------|
|------------------------------------------------------------------|
|-0----------------------------------------------------------------|
|------------------------------------------------------------------|

| | | |
||-----------------------------------------------------------------|
|*0---------------0------------------------------------------------|
|*------------------------------------------------2----------------|
||--------------------------------3-------3---------------3--------|

| | | |
|------------------------------------------------------------------|
|------------------------------------------------------------------|
|-0---------------0---------------0-------0---------------0--------|
|------------------------------------------------------------------|

| | | |
|-------------------------2----------------------------------------|
|-0---------------4---------------------------------------0--------|
|-------------------------------------------------2----------------|
|---------------------------------3-------3------------------------|

>6| | | |
|-----------------------------------------------------------------||
|---------------------------------2-------2-------2---------------*|
|-0-------0-------4-------4---------------------------------------*|
|-----------------------------------------------------------------||




Created with TablEdit http://www.tabledit.com/

OptimusPrime

Submitted by OptimusPrime at Sun 26 May, 2002 6:46 pm

Author: ?
Composer: ?
Publisher: ?
Language: English

Reactions

CommonCrawl [Bot]

Follow Muzikum