The Beatles

The Beatles
Back In The Ussr (Bass tab)

Date: Thu, 28 Mar 2002 10:12:54 +0200
From: "Jan Bjorklund"
Subject: b/beatles/back_in_the_ussr.btab

Beatles_Back In The USSR

TablEdited by Jan Bjorklund, Finland
You are welcome to request for tabs!
Fingering and positions as suggested by TablEdit, please use common sense!


TablEdited by Jan Bjorklund
Tuning : E A D G Time Signature: 4/4

| | | |
||-----------------------------------------------------------------|
|*2-------2-------2-------2-------2-------2-------2-------2--------|
|*-----------------------------------------------------------------|
||-----------------------------------------------------------------|

| | | |
|-----------------------------------------------------------------||
|-2-------2-------2-------2-------2-------2-------2-------2-------*|
|-----------------------------------------------------------------*|
|-----------------------------------------------------------------||

| | | |
||2-------2-------0-------0----------------------------------------|
|*--------------------------------2-------2------------------------|
|*------------------------------------------------4-------4--------|
||-----------------------------------------------------------------|

| | | |
|-----------------------------------------2------------------------|
|-0-------0-------0-------0-------4---------------4---2---0--------|
|------------------------------------------------------------------|
|------------------------------------------------------------------|

| | | |
|-----------------------------------------0------------------------|
|---------------------------------2---------------2---0------------|
|-3-------3-------3-------3---3---------------------------3--------|
|------------------------------------------------------------------|

| | | |
|-----------------------------------------2-----------------------||
|-0-------0-------0-------0-------4---------------4---2---0-------*|
|-----------------------------------------------------------------*|
|-----------------------------------------------------------------||

| | | |
|-2-------2-------2-------2-------2-------2-------2----------------|
|------------------------------------------------------------------|
|------------------------------------------------------------------|
|------------------------------------------------------------------|

| | | |
|------------------------------------------------------------------|
|------------------------------------------------------------------|
|-3-------3-------3-------3-------3-------3-------3----------------|
|------------------------------------------------------------------|

| | | |
|------------------------------------------------------------------|
|-0-------0-------0-------0-------0-------0-------0----------------|
|------------------------------------------------------------------|
|------------------------------------------------------------------|

| | | |
|------------------------------------------------------------------|
|-0----------------------------------------------------------------|
|------------------------------------------------------------------|
|------------------------------------------------------------------|

| | | |
|-2-------2-------2-------2-------2-------2-------2-------2--------|
|------------------------------------------------------------------|
|------------------------------------------------------------------|
|------------------------------------------------------------------|

| | | |
|-2-------4-------4-----------------------------------------------||
|-------------------------2---------------2-------2-------2-------*|
|-----------------------------------------------------------------*|
|-----------------------------------------------------------------||

| | | |
|-2-----------2---2-----------2---2-----------2---2-------2---2----|
|------------------------------------------------------------------|
|------------------------------------------------------------------|
|------------------------------------------------------------------|

| | | |
|------------------------------------------------------------------|
|------------------------------------------------------------------|
|-3-----------3---3-----------3---3-----------3---3-------3---3----|
|------------------------------------------------------------------|

| | | |
|------------------------------------------------------------------|
|-0-----------0---0-----------0---0-----------0---0-------0---0----|
|------------------------------------------------------------------|
|------------------------------------------------------------------|

| | | |
|------------------------------------------------------------------|
|-2----------------------------------------------------------------|
|------------------------------------------------------------------|
|------------------------------------------------------------------|

| | | |
|------------------------------------------------------------------|
|------------------------------------------------------------------|
|------------------------------------------------------------------|
|------------------------------------------------------------------|

| |
|----------------------------------|
|----------------------------------|
|----------------------------------|
|----------------------------------|

| | | |
|------------------------------------------------------------------|
|------------------------------------------------------------------|
|-0-----------0---0-----------0---0-----------0---0-----------0----|
|------------------------------------------------------------------|

| | | |
|------------------------------------------------------------------|
|------------------------------------------------------------------|
|-0-----------0---0-----------0---0-----------0---0-----------0----|
|------------------------------------------------------------------|

| | | |
|------------------------------------------------------------------|
|-0-------0-------0-------0-------0-------0-------0-------0--------|
|------------------------------------------------------------------|
|------------------------------------------------------------------|

| | | |
|------------------------------------------------------------------|
|-0-------0-------0-------0-------0-----------0---0-------0---0----|
|------------------------------------------------------------------|
|------------------------------------------------------------------|

| | | |
|-2-------2-------2-------2-------2-------2-------2-------2--------|
|------------------------------------------------------------------|
|------------------------------------------------------------------|
|------------------------------------------------------------------|

| | | |
|-2-------2-------2-------2-------0-------0-------0-------0--------|
|------------------------------------------------------------------|
|------------------------------------------------------------------|
|------------------------------------------------------------------|

| | | |
|------------------------------------------------------------------|
|-0-------0-------0------------------------------------------------|
|---------------------------------4-------4-------4----------------|
|------------------------------------------------------------------|

| | | |
|------------------------------------------------------------------|
|------------------------------------------------------------------|
|-3-------3-------3---------------2-------2-------2----------------|
|------------------------------------------------------------------|

| | | |
|------------------------------------------------------------------|
|-2-------2-------2-------2-------2-------2-------2-------2--------|
|------------------------------------------------------------------|
|------------------------------------------------------------------|

| | | |
|------------------------------------------------------------------|
|-0-------0-------0-------0-------0-------0-------0-------0--------|
|------------------------------------------------------------------|
|------------------------------------------------------------------|

| | | |
|-2-------2-------0-------0----------------------------------------|
|---------------------------------2-------2------------------------|
|-------------------------------------------------4-------4--------|
|------------------------------------------------------------------|

| | | |
|-----------------------------------------2------------------------|
|-0-------0-------0-------0-------4---------------4---2---0--------|
|------------------------------------------------------------------|
|------------------------------------------------------------------|

| | | |
|-2-------2-------2-------2---2---2-------2-------2-------2--------|
|------------------------------------------------------------------|
|------------------------------------------------------------------|
|------------------------------------------------------------------|

| | | |
|------------------------------------------------------------------|
|------------------------------------------------------------------|
|-3-------3-------3-------3-------3-------3-------3-------3--------|
|------------------------------------------------------------------|

| | | |
|------------------------------------------------------------------|
|-0-------0-------0-------0-------0-------0-------0-------0--------|
|------------------------------------------------------------------|
|------------------------------------------------------------------|

| | | |
|-2-------2-------2-------2-------2-------2-------2-------2--------|
|------------------------------------------------------------------|
|------------------------------------------------------------------|
|------------------------------------------------------------------|

| | | |
|------------------------------------------------------------------|
|-0-------0-------0-------0-------0-------0-------0-------0--------|
|------------------------------------------------------------------|
|------------------------------------------------------------------|

| | | |
||2-------2-------2-------2-------2-------2-------2-------2--------|
|*-----------------------------------------------------------------|
|*-----------------------------------------------------------------|
||-----------------------------------------------------------------|

| | | |
|-2-------2-------2-------2-------2-------2-------2-------2--------|
|------------------------------------------------------------------|
|------------------------------------------------------------------|
|------------------------------------------------------------------|

| | | |
|-2----------------------------------------------------------------|
|------------------------------------------------------------------|
|------------------------------------------------------------------|
|------------------------------------------------------------------|


Created with TablEdit http://www.tabledit.com/

OptimusPrime

Submitted by OptimusPrime at Sun 26 May, 2002 6:46 pm

Author: ?
Composer: ?
Publisher: ?
Language: English

Reactions

CommonCrawl [Bot]

Follow Muzikum