The Beatles

The Beatles
Paperback Writer (Bass tab)

Date: Sun, 16 Dec 2001 05:20:31 +0800
From: "Runar Maeland"
Date: Sun, 7 Jul 2002 17:11:46 +0200 (CEST)
From: =?iso-8859-1?q?Jan=20Bj=F6rklund?=
Subject: b/beatles/paperback_writer.btab

beatles-paperback_writer.btab

Basstab by Jan Bjorklund, Finland;
jani_bjorklund@yahoo.se
You are welcome to request for basstabs!
Bienvenidos a pedirme transcripciones para el bajo!
Fingering and positions as suggested by TablEdit.

TablEdited by Jan Bjorklund
Tuning : E A D G Time Signature: 4/4


| | | | | | | |
|--------------------------------|--------------------------------|
|--------------------------------|------------------------3-------|
|--------------------------------|--------------------5-----------|
|----------------151515--15------|3-------3-------3-----------3---|

| | | | | | | |
|--------------------------------|--------------------------------|
|--------------------------------|--------------------------------|
|--------------------2---3---5---|------------------------5-------|
|3-------3-------5---------------|3-------3-------3---5-------3---|

| | | | | | | |
|--------------------------------|--------------------------------|
|----------------------------3---|------------------------3-------|
|--------------------3---5-------|--------------------5-----------|
|3-------3-------5---------------|3-------3-------------------3---|

| | | | | | | |
|--------------------------------|--------------------------------|
|--------------------3-----------|------------------------3-------|
|----------------5---------------|--------------------5-----------|
|3-------3---------------3-------|3-------3---3---------------3---|

| | | | | | | |
|--------------------------------|--------------------------------|
|--------------------------------|--------------------------------|
|--------------5h7-------5-------|3-------------------0---1---3---|
|3-------3---3-------3-----------|----------------3---------------|

| | | | | | | |
|--------------------------------|--------------------------------|
|--------------------------------|--------------------------------|
|3-------3-----------------------|--------------------------------|
|--------------------------------|3-------3-----------------------|

| | | | | | | |
|--------------------------------|--------------------------------|
|--------------------------------|------------------------3-------|
|--------------------------------|----------------5---5-----------|
|--------------------------------|3-------3-------------------3---|

| | | | | | | |
|--------------------------------|--------------------------------|
|--------------------------------|------------------------3-------|
|--------------------3---4---5---|--------------------5-----------|
|3-------3-------5---------------|3-------3-------3-----------3---|

| | | | | | | |
|--------------------------------|--------------------------------|
|--------------------3-----------|------------------------3-------|
|----------------5---------------|--------------------5-----------|
|3-------3---------------3-------|3-------3-------------------3---|

| | | | | | | |
|--------------------------------|--------------------------------|
|--------------------------------|--------------------------------|
|----------------5-------6-------|------------------------3---5---|
|3-------3-----------3-------3---|3-------3-----------5-----------|

| | | | | | | |
|--------------------------------|--------------------------------|
|----------------1---------------|--------------------------------|
|------------------------3-------|3-------3---------------1---3---|
|3-------------------3-----------|--------------------------------|

| | | | | | | |
|--------------------------------|--------------------------------|
|--------------------------------|--------------------------------|
|3-----------------------3-------|--------------------------------|
|--------------------------------|3-------3-----------------------|

| | | | | | | |
|--------------------------------|--------------------------------|
|--------------------------------|--------------------------------|
|--------------------------------|--------------------------------|
|--------------------------------|--------------------------------|

| | | | | | | |
|--------------------------------|--------------------------------|
|--------------------------------|--------------------------------|
|--------------------------------|--------------------------------|
|--------------------------------|--------------------------------|

| | | | | | | |
|--------------------------------|--------------------------------|
|--------------------------------|--------------------------------|
|--------------------------------|--------------------------------|
|--------------------------------|--------------------------------|

| | | | | | | |
|--------------------------------|--------------------------------|
|--------------------------------|--------------------------------|
|--------------------------------|--------------------------------|
|--------------------------------|--------------------------------|

| | | | | | | |
|--------------------------------|--------------------------------|
|--------------------------------|------------------------3-------|
|--------------------------------|--------------------5-----------|
|----------------1515151515--15--|3-------3-------------------3---|

| | | | | | | |
|--------------------------------|--------------------------------|
|--------------------------------|--------------------------------|
|--------------------2---3---5---|------------------------5-------|
|3---------------5---------------|3-------3-----------5-------3---|

| | | | | | | |
|--------------------------------|--------------------------------|
|----------------------------3---|------------------------3-------|
|--------------------3---5-------|--------------------5-----------|
|3-------3-------5---------------|3-------3-------3-----------3---|

| | | | | | | |
|--------------------------------|--------------------------------|
|--------------------------------|------------------------3-------|
|------------2---3---3---5---5---|--------------------5-----------|
|3-------------------------------|3---------------3-----------3---|

| | | | | | | |
|--------------------------------|--------------------------------|
|--------------------------------|--------------------------------|
|------------------------5---4---|3-------3-----------0---1---3---|
|3-------------------3-----------|----------------3---------------|

| | | | | | | |
|--------------------------------|--------------------------------|
|--------------------------------|--------------------------------|
|3-------3-----------1---3-------|--------------------------------|
|----------------3---------------|3-------3-----------------------|

| | | | | | | |
|--------------------------------|--------------------------------|
|--------------------------------|----------------------------3---|
|--------------------------------|--------------------------------|
|--------------------------------|3-------3-----------------------|

| | | | | | | |
|--------------------------------|--------------------------------|
|----------------------------3---|--------------------------------|
|--------------------------------|--------------------------------|
|3-----------3-------------------|3-------------------------------|

| | | | | | | |
|--------------------------------|--------------------------------|
|--------3-----------5---3-------|--------------------5-------3---|
|--------------------------------|--------------------------------|
|----------------3-----------3---|3-------3---------------3-------|

| | | | | | | |
|--------------------------------|--------------------------------|
|--------------------5-------3---|------------3---------------3---|
|--------------------------------|--------------------------------|
|3-----------------------3-------|3-------------------3---3-------|

| | | | | | | |
|--------------------------------|--------------------------------|
|--------------------------------|--------------------------------|
|--------------------------------|3-------3-----------0---1---3---|
|3---------------------------1---|----------------3---------------|

| | | | | | | |
|--------------------------------|--------------------------------|
|--------------------------------|--------------------------------|
|----------------------------3---|--------------------------------|
|--------------------------------|3-------3-----------------------|

| | | | | | | |
|--------------------------------|--------------------------------|
|--------------------------------|--------------------------------|
|--------------------------------|--------------------------------|
|--------------------------------|--------------------------------|

| | | | | | | |
|--------------------------------|--------------------------------|
|--------------------------------|--------------------------------|
|--------------------------------|--------------------------------|
|--------------------------------|--------------------------------|

| | | | | | | |
|--------------------------------|--------------------------------|
|--------------------------------|--------------------------------|
|--------------------------------|--------------------------------|
|--------------------------------|--------------------------------|

| | | | | | | |
|--------------------------------|--------------------------------|
|--------------------------------|--------------------------------|
|--------------------------------|--------------------------------|
|--------------------------------|--------------------------------|

| | | | | | | |
|--------------------------------|--------------------------------|
|3-5-3-5-3---5---3-5-3-5-3---5---|------------------------3-------|
|--------------------------------|----------------5---5-----------|
|--------------------------------|3-------3-------------------3---|

| | | | | | | |
|--------------------------------|--------------------------------|
|--------------------------------|------------------------3-------|
|--------------------2---3---5---|--------------------5-----------|
|3---------------5---------------|3-----------3---5-----------3---|

| | | | | | | |
|--------------------------------|--------------------------------|
|--------------------------------|------------------------3-------|
|--------------------2---3---5---|--------------------5-----------|
|3-------3---3---5---------------|3---------------------------3---|

| | | | | | | |
|--------------------------------|--------------------------------|
|--------------------------------|--------------------------------|
|------------------------3---5---|------------------------5-------|
|3-----------3---4h5-6-----------|3-------3-------3---5-------3---|

| | | | | | | |
|--------------------------------|--------------------------------|
|----------------------------3---|------------------------3-------|
|--------------------5-----------|--------------------5-----------|
|3-------3-------5---------------|3-------3-------3-----------3---|

| | | | | | | |
|--------------------------------|--------------------------------|
|--------3---------------3-------|------------------------3-------|
|----5---------------5-----------|--------------------5-----------|
|3-----------3---3---------------|3-------3-------------------3---|

| | | | | | | |
|--------------------------------|--------------------------------|
|----------------2---2-----------|--------------------------------|
|--------------------------------|--------------------------------|
|3-------3---------------3-------|3-----------3-------3-----------|

| | | | | | | |
|--------------------------------|--------------------------------|
|------3-------------------------|--------------------------------|
|----5---------------------------|--------------------------------|
|------------3---3---------------|3-----------3-------3-----------|


Created with TablEdit http://www.tabledit.com/

OptimusPrime

Submitted by OptimusPrime at Fri 04 Jan, 2002 8:51 pm

Author: ?
Composer: ?
Publisher: ?
Language: English

Reactions

CommonCrawl [Bot]

Follow Muzikum