The Beatles

The Beatles
Slow Down (Guitar chord)

From: Ellis1062@aol.com
Sent: 20 July 1998 08:42 PM
Subject: b/beatles/slow_down.crd

Slow Down (a la THE BEATLES)
>From the Album PAST MASTERS-VOLUME ONE
Words and Music by Larry Williams
Transcribed to tab by
Lamar Ellis, Atlanta, Ga. July 1998
(ELLIS1062@AOL.COM)

SLOW DOWN=09
Beatles
C
WELL COME ON PRETTY BABY...
F
SLOW DO...
C
BABY NOW YOUR ...
G
YOU GOT TO ...
F
GIVE ME A ...
C
IF YOU WANT OUR ...

RHYTHM ON THE C CHORD
E----------------8--------------------------------------
B----------------8--------------------------------------
G-------------------------------------------------------
D------------------------------------------------------- =
A---(9)slide10-------10--10--12--10--10-----------------
E---(7)------8-------12---8---8---8--12--repeat---------

THE RHYTHM ON THE F CHORD
E-------------------------------------------------------
B-------------------------------------------------------
G-------------------------------------------------------
D---(9)slide10-------10--10--12--10--10-----------------
A---(7)------8-------12---8---8---8--12-----------------
E-------------------------------------------------------

THE RHYTHM ON THE G CHORD
E-------------------------------------------------------
B-------------------------------------------------------
G-------------------------------------------------------
D---(11)slide12------12--12--14--12--12-----------------
A----(9)-----10------14--10--10--10--14-----------------
E-------------------------------------------------------

ROCK N' ROLL IS THE UNIVERSAL TRUTH. ENJOY

OptimusPrime

Submitted by OptimusPrime at Tue 18 Dec, 2001 12:51 pm

Author: ?
Composer: ?
Publisher: ?
Language: English

Reactions

CommonCrawl [Bot]

Follow Muzikum