The Beatles

The Beatles
Another Girl (Guitar chord)

From: AB2183@aol.com
Date: Thu, 18 Mar 1999 17:59:30 EST
Subject: b/beatles/another_girl.crd


"Another Girl"
(by Paul McCartney) 1965 from the album HELP!
[Tabbed by Andrew: ab2183@aol.com-Requests,comments,corrections]

VERSE 1:
N.C. A7 D7 A7 D7 A7
For I have ...
G A D A
You're making ...
G A D
But as from ...
D7 E7
I ain't no ...

VERSE 2:
A7 D7 A7 D7 A7
For I have ...
G A D A
She's sweeter ...
G A D
Nobody in ...
D7 E7
And so ...

CHORUS:
A7 D A7 D
For I have ...
C G C G
Another girl...
C E7 A7
Through thick ...

VERSE 3:
A G A D A
I don't ...
=09G A D
But, as ...
D7 E7
I ain't no ...

REPEAT CHORUS

REPEAT VERSE 3

OUTRO:
A D A D
For I ...
A D A A7
Another girl, ...


The little riff played in the song is:
(Listen to the song for timing)

e----------------------
B----------------------
G---5-5-5---7-7-7------
D---------7------------
A----------------------
E----------------------

The outro riff is:
e------------------------5------------------
B--------------------------7-7-7------------
G---5-5-5--5-5-7-7-5-5-----------7-7-7-5-5--
D-7-------7------------7--------------------
A-------------------------------------------
E-------------------------------------------

--part0_921797971_boundary--

OptimusPrime

Submitted by OptimusPrime at Tue 18 Dec, 2001 12:51 pm

Author: ?
Composer: ?
Publisher: ?
Language: English

Reactions

CommonCrawl [Bot]

Follow Muzikum