The Beatles

The Beatles
Golden Slumbers (Guitar tab)

#


From lrw@virginia.edu Fri May 16 08:17:51 1997
Date: Fri, 09 May 1997 19:51:25 -0400
From: "Laurence R. Watson"
To: guitar@olga.net
Subject: TAB: Golden Slumbers

FROM: Stuart Watson

This is a nice guitar arrangement for "Golden Slumbers"
This song was on their 1969 album "Abbey Road.


CHORUS:


Am7 Dm
|--3----3----3----3----|--3----3----3----3----|--1----1----1----1----|--1----1----3----3----|
|--1----1----1----1----|--1----1----1----1----|--3----3----3----3----|--3----3----5----5----|
|----2----2----2----2--|----2----2----2----2--|----2----2----2----2--|----2----2----2----2--|
|----------------------|----------------------|----------------------|----------------------|
|----------------------|----------------------|--0-------------------|----------------------|
|----------------------|----------------------|----------------------|----------------------|


G7 C E7
|--5----5----3----1----|--1----1----1----1----|--1----1----1----1----|--3----3----4----4----|
|--6----6----5----3----|--0----0----0----0----|--0----0----0----0----|--5----5----3----3----|
|----2----2----2----2--|----0----0----0----0--|----0----0----0----0--|----0----0----4----4--|
|--0-------------------|----------------------|----------------------|------------2---------|
|----------------------|----------------------|----------------------|--3-------------------|
|----------------------|----------------------|--3-------------------|----------------------|


Am Dm G7 C
|--5----5--------------|--0----0----0----0----|--1----1----1---------|----------------------|
|--5----5--------------|--3----3----3----3----|--0----1----3----0----|--1----1----1----1----|
|----5----5------------|----2----2----2----2--|----0----0----0--0----|----0----0----0----0--|
|----------------------|--0-------------------|-------------------3--|--2----2----2----2----|
|--0-------------------|----------------------|-------0----2---------|--3-------------------|
|----------------------|----------------------|--3--------------3----|----------------------|


VERSE (Strum As You Like):


C Fmaj7 F C
|--0-------------------|--0---------------1----|--0-------------------|
|--1-------------------|--1---------------1----|--1-------------------|
|--0-------------------|--2---------------2----|--0-------------------|
|--2-------------------|--3---------------3----|--2-------------------|
|--3-------------------|--3---------------3----|--3-------------------|
|----------------------|-----------------------|----------------------|


C Fmaj7 F
|--0-------------------|--0---------------1----| Then go back to the
place in the
|--1-------------------|--1---------------1----| verse where the
chord changes to "C"
|--0-------------------|--2---------------2----|
|--2-------------------|--3---------------3----|
|--3-------------------|--3---------------3----|
|----------------------|-----------------------|

OptimusPrime

Submitted by OptimusPrime at Fri 16 Nov, 2001 9:26 pm

Author: ?
Composer: ?
Publisher: ?
Language: English

Reactions

CommonCrawl [Bot]

Follow Muzikum