Beastie Boys

Beastie Boys
Time For Living (Guitar tab)

Beastie Boys - Time for Living
Tabbed by Peter O

Standard Tuning - E A D G B e

Intro / Verse
|-------------------------------------------------------------------|
|-------------------------------------------------------------------|
|-9-9-9-9-9-9-9-9---------------------------------------------------|
|-9-9-9-9-9-9-9-9--5-5-5-5-5-5-5-5--7-7-7-7-7-7-7-7-7-7-7-7-7-7-7-7-|
|-7-7-7-7-7-7-7-7--5-5-5-5-5-5-5-5--7-7-7-7-7-7-7-7-7-7-7-7-7-7-7-7-|
|------------------3-3-3-3-3-3-3-3--5-5-5-5-5-5-5-5-5-5-5-5-5-5-5-5-|


Post Chorus
|-------------------------------|
|-------------------------------|
|--------------9-7--------------|
|-7--7--9-9-9--9-7--5---5-5-5-5-|
|-7--7--9-9-9--7-7--5---5-5-5-5-|
|-5--5--7-7-7--7-7--3---3-3-3-3-|


Bridge
|---------------------------------|
|---------------------------------|
|---------------------------------|
|-5---------------8---------------|
|-5---------------8---------------|
|-3---------------6---------------|


Bridge 2
|---------------------------------|
|---------------------------------|
|---------------------------------|
|-5--5-5-5-5-5-5--8--8-8-8-8-8-8--|
|-5--5-5-5-5-5-5--8--8-8-8-8-8-8--|
|-3--3-3-3-3-3-3--6--6-6-6-6-6-6--|
pm . . . . . . . . . . . .


At some point
|-----------------------------------------|
|-----------------------------------------|
|-9-9-9-9-9-9-9-9-10-12-14-16-17-19-20-21-|
|-9-9-9-9-9-9-9-9--x--x--x--x--x--x--x--x-|
|-7-7-7-7-7-7-7-7--8-10-12-14-15-17-18-19-|
|-----------------------------------------|

OptimusPrime

Submitted by OptimusPrime at Thu 14 Aug, 2003 4:10 pm

Author: ?
Composer: ?
Publisher: ?
Language: English

Reactions

CommonCrawl [Bot]

Follow Muzikum