Beastie Boys

Beastie Boys
The Maestro (Bass tab)

ARTIST: BEASTIE BOYS
SONG: THE MAESTRO
ALBUM: CHECK YOUR HEAD
TAB BY: JARED
(THEMEFROMAJACKYL@YAHOO.COM)
INTRO MAIN GROOVE
this sometimes
G-----3-3-| |----------------|------------------|
D-3^5-----| |------------3---|--------------3---|
A---------| |---3-5--5-5---5-|---3-5--5-3^5---5-|
E---------| |-3--------------|-3----------------|

FILL 1 BREAK 1 this at end of break
G--------------| |-----------3---|-----------3-10--|
D----------(3)-| |-5-5--5--5---6-|-5-5--5--5-------|
A-5----5-------| |---------------|-----------------|
E----3---3-----| |---------------|-----------------|

FILL 2 BREAK 2
G---------------------| |-------------------|-------------------|
D-------------3-5-3---| |---------3---3-5-3-|---------3-3-5-3---|
A---3-5-5-5-5-------5-| |-----3-5---5-------|-----3-5---------5-|
E-3-------------------| |-X-3---------------|-X-3---------------|
the 1st note is either a rest or blocked
FILL 3 out by the drums & keyboard
G-----7-7--|
D-5-5------|
A----------|
E----------|

THE ORDER:
Intro, Main, Fill 1, Main, Fill 1, Break 1, Fill 1,
Main, Fill 2, Fill 1, Break 2, Break 1, Fill 3,
Main
Alright just one more thing fill 2 is actually the last line of the third verse, I hope that makes sense. I hope this tab makes sense.........
XX1134XX

OptimusPrime

Submitted by OptimusPrime at Thu 14 Aug, 2003 4:10 pm

Author: ?
Composer: ?
Publisher: ?
Language: English

Reactions

CommonCrawl [Bot]

Follow Muzikum