Beastie Boys

Beastie Boys
No Sleep Till Brooklyn Ver 3 (Guitar tab)

since this site won't let me just put the guitar thing once i'll write out more of 'em. very easy song

-------------------------------------
-------------------------------------
-------------------------------------
-2-2---5-7---9---5-------------------------
-2-2---5-7---9---5-------------------------
-0-0---3-5---7---3-------------------------

-------------------------------------
-------------------------------------
-------------------------------------
-2-2---5-7---9---5-------------------------
-2-2---5-7---9---5-------------------------
-0-0---3-5---7---3-------------------------

-------------------------------------
-------------------------------------
-------------------------------------
-2-2---5-7---9---5-------------------------
-2-2---5-7---9---5-------------------------
-0-0---3-5---7---3-------------------------

-------------------------------------
-------------------------------------
-------------------------------------
-2-2---5-7---9---5-------------------------
-2-2---5-7---9---5-------------------------
-0-0---3-5---7---3-------------------------

OptimusPrime

Submitted by OptimusPrime at Thu 14 Aug, 2003 4:10 pm

Author: ?
Composer: ?
Publisher: ?
Language: English

Reactions

CommonCrawl [Bot]

Follow Muzikum