Beastie Boys

Beastie Boys
Mark On The Bus (Guitar tab)

mark on the bus


beastie boys


album: check your head


TRANSCRIBED BY RUDY GUZMAN


guzman_84@hotmail.com

wah
good morning....
e:----------------------------------------------------------------------------|
B:---5---5--7-7---------------------4h6-6--4----4b-------4--------------------|
G:-6---6----------------------------4h6-6--4----4b-------4--------------------|
D:--------------------------------------------6----6-4h6-----2h4-4--4-2h4~~---|
A:----------------------------------------------------------------------------|
E:----------------------------------------------------------------------------|

verse
i ride on the bus.....
e:-------------------------------------------|
B:-4h6-6--4-----4b-----------------------5-7-|
G:-4h6-6--4-----4b---------------------6-----|
D:-----------6-----6--4--2h4-4-2h4~~---------|
A:-------------------------------------------|
E:-------------------------------------------|

i sit on a seat and dream myself away
e:--------------------------------------------|
B:-4h6-6--4-----4b----------------------x-x-x-|
G:-4h6-6--4-----4b----------------------x-x-x-|
D:-----------6-----6--4--2h4-4-2h4~~----x-x-x-|
A:--------------------------------------------|
E:--------------------------------------------|

i dream i'm on a....
e:---------------------------------------12--14-|
B:-4-6b--6b-4----4-4----4--6b-6b-4---4----------|
G:-4-6b--6b-4----4-4----4--6b-6b-4---4----------|
D:-------------6-----6-------------6------------|
A:----------------------------------------------|
E:----------------------------------------------|

and when i'm mistaken i must be mistaken i'm of the avenue
e:-------------------------------------------------------------|
B:-2-4b---4--2--4--2--2-4b---4--2--4--2--2--4b-4b--2-----------|
G:-2-4b---4--2--4--2--2-4b---4--2--4--2--2--4b-4b--2--4--2-----|
D:----------------------------------------------------4--2-----|
A:----------------------------------------------------------4/-|
E:-------------------------------------------------------------|

wont you take me away.....
e:------------------------------------------2--2-|
B:----2-4b-4--2--4b--x-x-x----2-4--4b------------|
G:----2-4b-4--2--4b--x-x-x----2-4--4b--2---------|
D:--4----------------x-x-x--4-------------4------|
A:-------------------x-x-x-----------------------|
E:-----------------------------------------------|

wont you take me away.....
e:-------------------------------------------|
B:----2-4b-4--2--4b--x-x-x----2-4--4b--------|
G:----2-4b-4--2--4b--x-x-x----2-4--4b--2-----|
D:-4-----------------x-x-x--4-------------4--|
A:-------------------x-x-x-------------------|
E:-------------------------------------------|


e:--------------|
B:---------7-7--|
G:-6-8-6-8------|
D:--------------|
A:--------------|
E:--------------|

get off the bus
e:-------------------------------------------------|
B:-4h6-6--4-----4b-----------------------5-7-7-7-7-|
G:-4h6-6--4-----4b---------------------6-----------|
D:-----------6-----6--4--2h4-4-2h4~~---------------|
A:-------------------------------------------------|
E:-------------------------------------------------|

OptimusPrime

Submitted by OptimusPrime at Thu 14 Aug, 2003 4:10 pm

Author: ?
Composer: ?
Publisher: ?
Language: English

Reactions

CommonCrawl [Bot]

Follow Muzikum