Beastie Boys

Beastie Boys
Hey Ladies Ver 2 (Bass tab)

--------------
Hey Ladies
--------------
From Beastie Boys album "Paul's Boutique"
Tab by Matt Clark, Matt.Clark@umit.maine.edu


Bass - this is a part in one of the last verses.

"Hey, Hey Hey, Hey Hey, Hey Ladies"
|---------------------------------------------------------------------|
|---------------------------------------------------------------------|
|-0----2--3----3--5----5-5--x-3---------------------------------------|
|---------------------------------------------------------------------|


The last time it is played like this

(these last five are all pops)
|------------------------5-7-5-7-5------------------------------------|
|----------------------0----------------------------------------------|
|-0----2--3----3--5---------------------------------------------------|
|---------------------------------------------------------------------|

OptimusPrime

Submitted by OptimusPrime at Thu 14 Aug, 2003 4:10 pm

Author: ?
Composer: ?
Publisher: ?
Language: English

Reactions

CommonCrawl [Bot]

Follow Muzikum