Beastie Boys

Beastie Boys
Gratitude Ver 2 (Bass tab)

Name: Jeff Burns
E-Mail: Murdock2583@cs.com
Band: Beastie Boys
Song: Gratitude
Album: Check Your Head

intro:
g------------------------------------------------------------------------------
d----5------------------5---------------5----------------5----------567--------
a--7---77756777--------7--77756777-----7--77756777------7---77756777-----------
e----------------345---------------345------------345--------------------------
verse: x8
g------------------------------------------------------------------------------
d----5-------------------------------------------------------------------------
a--7---77756777----------------------------------------------------------------
e------------------------------------------------------------------------------

repeat intro x4, fill: d-string 567 to e-string 345 quickly at end of bassline

repeat verse x4

repeat intro x4

break for keyboard solo, repeat intro x4

This is a song in which Adam Yauch of the Beasties uses a pedal on the bass to distort the sound. It is not necessary however. This is not a hard song to play, but does work hand strength and rhythm. Beastie Boys rock whether they are playing their instruments or not. Good luck.

OptimusPrime

Submitted by OptimusPrime at Thu 14 Aug, 2003 4:10 pm

Author: ?
Composer: ?
Publisher: ?
Language: English

Reactions

CommonCrawl [Bot]

Follow Muzikum