Beastie Boys

Beastie Boys
Sabrosa (Bass tab)

Sabrosa
I'll Communication
Beastie Boys
Tabbed by Jesse
Bleepo2@hotmail

Played on a stand up, but I use my homemade fretless.

low verse
g------------------I
d---------5-------oI
a-----3-5---3-5---oI
e-3-x-----------6--I

chorus
g------------------I
d------------------I
a------------------I
e-x-13-12--10--\3--I

High Verse
g------------12-----------I
d------10-12----10-12----oI
a-10-x----------------13 oI
e-------------------------I


there's a bit of a solo thing, but i improvise...

Enjoy

OptimusPrime

Submitted by OptimusPrime at Sun 01 Dec, 2002 8:47 am

Author: ?
Composer: ?
Publisher: ?
Language: English

Reactions

CommonCrawl [Bot]

Follow Muzikum