Beastie Boys

Beastie Boys
Heart Attack Man (Guitar chord)

From: "daniel gornall"
Subject: b/beastie_boys/heart_attack_man.crd
Date: Mon, 17 Dec 2001 08:28:57 +0000

Artist: Beastie Boys
Title: Heart Attack Man
Album: Ill Communication
Tabbed By: Dan Dan the American

There are very few guitar songs by the beastie boys
let alone good ones. Here it goes

Verse

e:----------------------
B:----------------------
G:-11-11-12-11-9-9-9-9--
D:-11-11-12-11-9-9-9-9--
A:--9--9-10--9-7-7-7-7--
E:----------------------

Chorus

e:---------------------
B:---------------------
G:---------------------
D:-9-9-10-9-7-7-10-10--
A:-9-9-10-9-7-7-10-10--
E:-7-7--8-7-5-5--8--8--

Bridge (slow strumming)

e:------------------------------------
B:------------------------------------
G:-----------------------7-7-7--------
D:-2-2-2-2-2-2-2-2-5-5-5-7-7-7-5-5-5--
A:-2-2-2-2-2-2-2-2-5-5-5-5-5-5-5-5-5--
E:-0-0-0-0-0-0-0-0-3-3-3-------3-3-3--

OptimusPrime

Submitted by OptimusPrime at Fri 04 Jan, 2002 8:51 pm

Author: ?
Composer: ?
Publisher: ?
Language: English

Reactions

CommonCrawl [Bot]

Follow Muzikum